ISO-10303-21;
HEADER;
FILE_DESCRIPTION (( 'STEP AP203' ),
    '1' );
FILE_NAME ('976372.step',
    '2021-11-24T06:51:33',
    ( '' ),
    ( '' ),
    'SwSTEP 2.0',
    'SolidWorks 2019',
    '' );
FILE_SCHEMA (( 'CONFIG_CONTROL_DESIGN' ));
ENDSEC;

DATA;
#1 = AXIS2_PLACEMENT_3D ( 'NONE', #53, #46, #142 ) ;
#2 = AXIS2_PLACEMENT_3D ( 'NONE', #99, #236, #138 ) ;
#3 = PRODUCT_DEFINITION_FORMATION_WITH_SPECIFIED_SOURCE ( 'ANY', '', #16, .NOT_KNOWN. ) ;
#4 = ORIENTED_EDGE ( 'NONE', *, *, #92, .T. ) ;
#5 = APPROVAL_STATUS ( 'not_yet_approved' ) ;
#6 = ORIENTED_EDGE ( 'NONE', *, *, #205, .T. ) ;
#7 = APPROVAL_ROLE ( '' ) ;
#8 = CYLINDRICAL_SURFACE ( 'NONE', #57, 0.7500000000000006661 ) ;
#9 = APPROVAL ( #177, 'UNSPECIFIED' ) ;
#10 = PERSON_AND_ORGANIZATION_ROLE ( 'design_owner' ) ;
#11 = PLANE ( 'NONE',  #206 ) ;
#12 = COORDINATED_UNIVERSAL_TIME_OFFSET ( 1, 0, .AHEAD. ) ;
#13 = AXIS2_PLACEMENT_3D ( 'NONE', #224, #106, #49 ) ;
#14 = FACE_OUTER_BOUND ( 'NONE', #25, .T. ) ;
#15 = DIRECTION ( 'NONE',  ( 0.0000000000000000000, 1.000000000000000000, 0.0000000000000000000 ) ) ;
#16 = PRODUCT ( '976372', '976372', '', ( #238 ) ) ;
#17 = AXIS2_PLACEMENT_3D ( 'NONE', #183, #88, #164 ) ;
#18 = CLOSED_SHELL ( 'NONE', ( #121, #129, #200, #222, #128, #38 ) ) ;
#19 = CC_DESIGN_APPROVAL ( #9, ( #3 ) ) ;
#20 = ORIENTED_EDGE ( 'NONE', *, *, #165, .T. ) ;
#21 = CALENDAR_DATE ( 2021, 24, 11 ) ;
#22 = CARTESIAN_POINT ( 'NONE',  ( 1.326762908760390423E-13, 1.199999999999998845, 38.00000000000000000 ) ) ;
#23 = PLANE ( 'NONE',  #241 ) ;
#24 = ORGANIZATION ( 'UNSPECIFIED', 'UNSPECIFIED', '' ) ;
#25 = EDGE_LOOP ( 'NONE', ( #132 ) ) ;
#26 = APPROVAL ( #221, 'UNSPECIFIED' ) ;
#27 = DIRECTION ( 'NONE',  ( 0.0000000000000000000, 1.000000000000000000, 0.0000000000000000000 ) ) ;
#28 = APPLICATION_CONTEXT ( 'configuration controlled 3d designs of mechanical parts and assemblies' ) ;
#29 = MANIFOLD_SOLID_BREP ( 'Corps-Déplacer/Copier1[2]', #185 ) ;
#30 = DIRECTION ( 'NONE',  ( 4.275831445896958607E-31, 1.000000000000000000, 1.224646799147353207E-16 ) ) ;
#31 = SECURITY_CLASSIFICATION_LEVEL ( 'unclassified' ) ;
#32 =( NAMED_UNIT ( * ) SI_UNIT ( $, .STERADIAN. ) SOLID_ANGLE_UNIT ( ) );
#33 = CARTESIAN_POINT ( 'NONE',  ( 9.121270025168804402E-15, -3.199310853021156381E-16, 2.612435565298207862 ) ) ;
#34 = CYLINDRICAL_SURFACE ( 'NONE', #187, 1.500000000000000000 ) ;
#35 = AXIS2_PLACEMENT_3D ( 'NONE', #210, #122, #204 ) ;
#36 =( GEOMETRIC_REPRESENTATION_CONTEXT ( 3 ) GLOBAL_UNCERTAINTY_ASSIGNED_CONTEXT ( ( #94 ) ) GLOBAL_UNIT_ASSIGNED_CONTEXT ( ( #198, #79, #32 ) ) REPRESENTATION_CONTEXT ( 'NONE', 'WORKASPACE' ) );
#37 = ORIENTED_EDGE ( 'NONE', *, *, #170, .T. ) ;
#38 = ADVANCED_FACE ( 'NONE', ( #146 ), #60, .F. ) ;
#39 = CC_DESIGN_SECURITY_CLASSIFICATION ( #167, ( #3 ) ) ;
#40 = EDGE_LOOP ( 'NONE', ( #4 ) ) ;
#41 = CARTESIAN_POINT ( 'NONE',  ( 1.187103655206665183E-14, 0.7500000000000006661, 3.399999999999999467 ) ) ;
#42 = CARTESIAN_POINT ( 'NONE',  ( 9.121270025168802824E-15, 5.624099184981962608E-33, 2.612435565298207418 ) ) ;
#43 = APPROVAL_DATE_TIME ( #237, #103 ) ;
#44 = CARTESIAN_POINT ( 'NONE',  ( 9.121270025168804402E-15, 0.7499999999999997780, 2.612435565298207862 ) ) ;
#45 = APPROVAL_PERSON_ORGANIZATION ( #96, #103, #47 ) ;
#46 = DIRECTION ( 'NONE',  ( 3.491481338843133355E-15, -1.224646799147353207E-16, 1.000000000000000000 ) ) ;
#47 = APPROVAL_ROLE ( '' ) ;
#48 = VERTEX_POINT ( 'NONE', #134 ) ;
#49 = DIRECTION ( 'NONE',  ( 4.355100981429076768E-31, 1.000000000000000000, 1.224646799147353207E-16 ) ) ;
#50 = VERTEX_POINT ( 'NONE', #235 ) ;
#51 = DIRECTION ( 'NONE',  ( -3.491481338843133355E-15, 1.224646799147353207E-16, -1.000000000000000000 ) ) ;
#52 = CC_DESIGN_DATE_AND_TIME_ASSIGNMENT ( #173, #63, ( #167 ) ) ;
#53 = CARTESIAN_POINT ( 'NONE',  ( 9.121270025168802824E-15, 5.624099184981962608E-33, 2.612435565298207418 ) ) ;
#54 = ADVANCED_FACE ( 'NONE', ( #229 ), #23, .T. ) ;
#55 = APPLICATION_CONTEXT ( 'configuration controlled 3d designs of mechanical parts and assemblies' ) ;
#56 = CIRCLE ( 'NONE', #110, 0.7500000000000001110 ) ;
#57 = AXIS2_PLACEMENT_3D ( 'NONE', #68, #197, #30 ) ;
#58 = DIRECTION ( 'NONE',  ( 0.0000000000000000000, 1.000000000000000000, 0.0000000000000000000 ) ) ;
#59 = CARTESIAN_POINT ( 'NONE',  ( 1.326762908760390423E-13, 8.998558695971103225E-33, 38.00000000000000000 ) ) ;
#60 = PLANE ( 'NONE',  #208 ) ;
#61 = COORDINATED_UNIVERSAL_TIME_OFFSET ( 1, 0, .AHEAD. ) ;
#62 = ORIENTED_EDGE ( 'NONE', *, *, #112, .F. ) ;
#63 = DATE_TIME_ROLE ( 'classification_date' ) ;
#64 = APPLICATION_PROTOCOL_DEFINITION ( 'international standard', 'config_control_design', 1994, #28 ) ;
#65 = FACE_OUTER_BOUND ( 'NONE', #149, .T. ) ;
#66 = AXIS2_PLACEMENT_3D ( 'NONE', #87, #182, #127 ) ;
#67 = VERTEX_POINT ( 'NONE', #41 ) ;
#68 = CARTESIAN_POINT ( 'NONE',  ( 0.0000000000000000000, 0.0000000000000000000, 0.0000000000000000000 ) ) ;
#69 = DATE_AND_TIME ( #212, #186 ) ;
#70 = DIRECTION ( 'NONE',  ( -3.491481338843133355E-15, 1.224646799147353207E-16, -1.000000000000000000 ) ) ;
#71 = CARTESIAN_POINT ( 'NONE',  ( 0.0000000000000000000, 0.0000000000000000000, 0.0000000000000000000 ) ) ;
#72 = PRODUCT_DEFINITION ( 'UNKNOWN', '', #3, #133 ) ;
#73 = CIRCLE ( 'NONE', #218, 1.499999999999996891 ) ;
#74 = CC_DESIGN_PERSON_AND_ORGANIZATION_ASSIGNMENT ( #201, #162, ( #72 ) ) ;
#75 = EDGE_LOOP ( 'NONE', ( #20 ) ) ;
#76 = EDGE_LOOP ( 'NONE', ( #131 ) ) ;
#77 = ORIENTED_EDGE ( 'NONE', *, *, #188, .T. ) ;
#78 = DATE_AND_TIME ( #82, #242 ) ;
#79 =( NAMED_UNIT ( * ) PLANE_ANGLE_UNIT ( ) SI_UNIT ( $, .RADIAN. ) );
#80 = ORIENTED_EDGE ( 'NONE', *, *, #89, .T. ) ;
#81 = DIRECTION ( 'NONE',  ( -4.275831445896958607E-31, -1.000000000000000000, -1.224646799147353207E-16 ) ) ;
#82 = CALENDAR_DATE ( 2021, 24, 11 ) ;
#83 = CARTESIAN_POINT ( 'NONE',  ( 1.187103655206665183E-14, -4.163799117101000066E-16, 3.399999999999999467 ) ) ;
#84 = CC_DESIGN_PERSON_AND_ORGANIZATION_ASSIGNMENT ( #180, #10, ( #16 ) ) ;
#85 = AXIS2_PLACEMENT_3D ( 'NONE', #83, #70, #15 ) ;
#86 = APPROVAL_DATE_TIME ( #232, #26 ) ;
#87 = CARTESIAN_POINT ( 'NONE',  ( 1.326762908760390423E-13, -4.653657836759941941E-15, 38.00000000000000000 ) ) ;
#88 = DIRECTION ( 'NONE',  ( -3.491481338843133355E-15, 1.224646799147353207E-16, -1.000000000000000000 ) ) ;
#89 = EDGE_CURVE ( 'NONE', #155, #155, #73, .T. ) ;
#90 = CIRCLE ( 'NONE', #17, 1.200000000000003286 ) ;
#91 = CC_DESIGN_APPROVAL ( #26, ( #72 ) ) ;
#92 = EDGE_CURVE ( 'NONE', #137, #137, #211, .T. ) ;
#93 = EDGE_LOOP ( 'NONE', ( #171 ) ) ;
#94 = UNCERTAINTY_MEASURE_WITH_UNIT (LENGTH_MEASURE( 1.000000000000000082E-05 ), #198, 'distance_accuracy_value', 'NONE');
#95 = ORIENTED_EDGE ( 'NONE', *, *, #165, .F. ) ;
#96 = PERSON_AND_ORGANIZATION ( #124, #24 ) ;
#97 = DIRECTION ( 'NONE',  ( 0.0000000000000000000, 0.0000000000000000000, 1.000000000000000000 ) ) ;
#98 = ORIENTED_EDGE ( 'NONE', *, *, #205, .F. ) ;
#99 = CARTESIAN_POINT ( 'NONE',  ( 1.316288464743861212E-13, -4.616918432785521081E-15, 37.69999999999999574 ) ) ;
#100 = CARTESIAN_POINT ( 'NONE',  ( 0.0000000000000000000, 0.0000000000000000000, 0.0000000000000000000 ) ) ;
#101 = DIRECTION ( 'NONE',  ( 3.491481338843133355E-15, -1.224646799147353207E-16, 1.000000000000000000 ) ) ;
#102 = PERSON_AND_ORGANIZATION ( #124, #24 ) ;
#103 = APPROVAL ( #5, 'UNSPECIFIED' ) ;
#104 = DIRECTION ( 'NONE',  ( -3.491481338843133355E-15, 1.224646799147353207E-16, -1.000000000000000000 ) ) ;
#105 = CIRCLE ( 'NONE', #2, 1.500000000000003331 ) ;
#106 = DIRECTION ( 'NONE',  ( -3.491481338843133355E-15, 1.224646799147353207E-16, -1.000000000000000000 ) ) ;
#107 = FACE_OUTER_BOUND ( 'NONE', #191, .T. ) ;
#108 = PRODUCT_RELATED_PRODUCT_CATEGORY ( 'detail', '', ( #16 ) ) ;
#109 = MANIFOLD_SOLID_BREP ( 'Corps-Déplacer/Copier1[1]', #18 ) ;
#110 = AXIS2_PLACEMENT_3D ( 'NONE', #33, #104, #27 ) ;
#111 = APPROVAL_PERSON_ORGANIZATION ( #115, #9, #7 ) ;
#112 = EDGE_CURVE ( 'NONE', #48, #48, #105, .T. ) ;
#113 = TOROIDAL_SURFACE ( 'NONE', #13, 8.750000000000000000, 8.000000000000000000 ) ;
#114 = EDGE_LOOP ( 'NONE', ( #77 ) ) ;
#115 = PERSON_AND_ORGANIZATION ( #124, #24 ) ;
#116 = EDGE_LOOP ( 'NONE', ( #80 ) ) ;
#117 = PERSON_AND_ORGANIZATION_ROLE ( 'design_supplier' ) ;
#118 = CARTESIAN_POINT ( 'NONE',  ( 2.367900757518973625E-14, -8.305477824363904586E-16, 6.781937314617162649 ) ) ;
#119 = COORDINATED_UNIVERSAL_TIME_OFFSET ( 1, 0, .AHEAD. ) ;
#120 = VERTEX_POINT ( 'NONE', #196 ) ;
#121 = ADVANCED_FACE ( 'NONE', ( #233 ), #184, .F. ) ;
#122 = DIRECTION ( 'NONE',  ( -3.491481338843133355E-15, 1.224646799147353207E-16, -1.000000000000000000 ) ) ;
#123 = FACE_OUTER_BOUND ( 'NONE', #189, .T. ) ;
#124 = PERSON ( 'UNSPECIFIED', 'UNSPECIFIED', 'UNSPECIFIED', ('UNSPECIFIED'), ('UNSPECIFIED'), ('UNSPECIFIED') ) ;
#125 = DATE_TIME_ROLE ( 'creation_date' ) ;
#126 = FACE_OUTER_BOUND ( 'NONE', #116, .T. ) ;
#127 = DIRECTION ( 'NONE',  ( 0.0000000000000000000, 1.000000000000000000, 0.0000000000000000000 ) ) ;
#128 = ADVANCED_FACE ( 'NONE', ( #65, #179 ), #139, .T. ) ;
#129 = ADVANCED_FACE ( 'NONE', ( #123, #14 ), #8, .T. ) ;
#130 = AXIS2_PLACEMENT_3D ( 'NONE', #100, #97, #217 ) ;
#131 = ORIENTED_EDGE ( 'NONE', *, *, #170, .F. ) ;
#132 = ORIENTED_EDGE ( 'NONE', *, *, #92, .F. ) ;
#133 = DESIGN_CONTEXT ( 'detailed design', #55, 'design' ) ;
#134 = CARTESIAN_POINT ( 'NONE',  ( 1.316288464743861212E-13, 1.499999999999998668, 37.69999999999999574 ) ) ;
#135 = DIRECTION ( 'NONE',  ( -4.275831445896958607E-31, -1.000000000000000000, -1.224646799147353207E-16 ) ) ;
#136 = PERSON_AND_ORGANIZATION_ROLE ( 'creator' ) ;
#137 = VERTEX_POINT ( 'NONE', #44 ) ;
#138 = DIRECTION ( 'NONE',  ( 0.0000000000000000000, 1.000000000000000000, 0.0000000000000000000 ) ) ;
#139 = CONICAL_SURFACE ( 'NONE', #66, 1.200000000000003286, 0.7853981633974453924 ) ;
#140 = FACE_OUTER_BOUND ( 'NONE', #76, .T. ) ;
#141 = APPROVAL_ROLE ( '' ) ;
#142 = DIRECTION ( 'NONE',  ( -4.275831445896958607E-31, -1.000000000000000000, -1.224646799147353207E-16 ) ) ;
#143 = DIRECTION ( 'NONE',  ( -3.491481338843133355E-15, 1.224646799147353207E-16, -1.000000000000000000 ) ) ;
#144 = CIRCLE ( 'NONE', #85, 0.7500000000000011102 ) ;
#145 = ADVANCED_FACE ( 'NONE', ( #202 ), #11, .F. ) ;
#146 = FACE_OUTER_BOUND ( 'NONE', #153, .T. ) ;
#147 = CC_DESIGN_PERSON_AND_ORGANIZATION_ASSIGNMENT ( #192, #150, ( #167 ) ) ;
#148 = ORIENTED_EDGE ( 'NONE', *, *, #89, .F. ) ;
#149 = EDGE_LOOP ( 'NONE', ( #62 ) ) ;
#150 = PERSON_AND_ORGANIZATION_ROLE ( 'classification_officer' ) ;
#151 = LOCAL_TIME ( 7, 51, 33.00000000000000000, #12 ) ;
#152 = CALENDAR_DATE ( 2021, 24, 11 ) ;
#153 = EDGE_LOOP ( 'NONE', ( #98 ) ) ;
#154 = ADVANCED_FACE ( 'NONE', ( #194, #199 ), #160, .T. ) ;
#155 = VERTEX_POINT ( 'NONE', #215 ) ;
#156 = PERSON_AND_ORGANIZATION ( #124, #24 ) ;
#157 = PERSON_AND_ORGANIZATION ( #124, #24 ) ;
#158 = DIRECTION ( 'NONE',  ( 4.275831445896958607E-31, 1.000000000000000000, 1.224646799147353207E-16 ) ) ;
#159 = SHAPE_DEFINITION_REPRESENTATION ( #223, #176 ) ;
#160 = CONICAL_SURFACE ( 'NONE', #166, 0.05000000000000000278, 0.2617993877991500740 ) ;
#161 = CC_DESIGN_APPROVAL ( #103, ( #167 ) ) ;
#162 = PERSON_AND_ORGANIZATION_ROLE ( 'creator' ) ;
#163 = DIRECTION ( 'NONE',  ( -4.275831445896958607E-31, -1.000000000000000000, -1.224646799147353207E-16 ) ) ;
#164 = DIRECTION ( 'NONE',  ( 0.0000000000000000000, 1.000000000000000000, 0.0000000000000000000 ) ) ;
#165 = EDGE_CURVE ( 'NONE', #50, #50, #56, .T. ) ;
#166 = AXIS2_PLACEMENT_3D ( 'NONE', #239, #181, #81 ) ;
#167 = SECURITY_CLASSIFICATION ( '', '', #31 ) ;
#168 = LOCAL_TIME ( 7, 51, 33.00000000000000000, #234 ) ;
#169 = DIRECTION ( 'NONE',  ( -3.491481338843133355E-15, 1.224646799147353207E-16, -1.000000000000000000 ) ) ;
#170 = EDGE_CURVE ( 'NONE', #67, #67, #144, .T. ) ;
#171 = ORIENTED_EDGE ( 'NONE', *, *, #112, .T. ) ;
#172 = EDGE_LOOP ( 'NONE', ( #95 ) ) ;
#173 = DATE_AND_TIME ( #214, #168 ) ;
#174 = DIRECTION ( 'NONE',  ( -3.491481338843133355E-15, 1.224646799147353207E-16, -1.000000000000000000 ) ) ;
#175 = COORDINATED_UNIVERSAL_TIME_OFFSET ( 1, 0, .AHEAD. ) ;
#176 = ADVANCED_BREP_SHAPE_REPRESENTATION ( '976372', ( #109, #29, #130 ), #36 ) ;
#177 = APPROVAL_STATUS ( 'not_yet_approved' ) ;
#178 = DIRECTION ( 'NONE',  ( 4.275831445896958607E-31, 1.000000000000000000, 1.224646799147353207E-16 ) ) ;
#179 = FACE_BOUND ( 'NONE', #216, .T. ) ;
#180 = PERSON_AND_ORGANIZATION ( #124, #24 ) ;
#181 = DIRECTION ( 'NONE',  ( 3.491481338843133355E-15, -1.224646799147353207E-16, 1.000000000000000000 ) ) ;
#182 = DIRECTION ( 'NONE',  ( -3.491481338843133355E-15, 1.224646799147353207E-16, -1.000000000000000000 ) ) ;
#183 = CARTESIAN_POINT ( 'NONE',  ( 1.326762908760390423E-13, -4.653657836759941941E-15, 38.00000000000000000 ) ) ;
#184 = PLANE ( 'NONE',  #1 ) ;
#185 = CLOSED_SHELL ( 'NONE', ( #145, #154, #54 ) ) ;
#186 = LOCAL_TIME ( 7, 51, 33.00000000000000000, #61 ) ;
#187 = AXIS2_PLACEMENT_3D ( 'NONE', #71, #143, #226 ) ;
#188 = EDGE_CURVE ( 'NONE', #120, #120, #203, .T. ) ;
#189 = EDGE_LOOP ( 'NONE', ( #37 ) ) ;
#190 = VERTEX_POINT ( 'NONE', #22 ) ;
#191 = EDGE_LOOP ( 'NONE', ( #148 ) ) ;
#192 = PERSON_AND_ORGANIZATION ( #124, #24 ) ;
#193 = APPLICATION_PROTOCOL_DEFINITION ( 'international standard', 'config_control_design', 1994, #55 ) ;
#194 = FACE_OUTER_BOUND ( 'NONE', #75, .T. ) ;
#195 = APPROVAL_DATE_TIME ( #78, #9 ) ;
#196 = CARTESIAN_POINT ( 'NONE',  ( 4.275831445896955842E-33, 0.05000000000000000278, 1.224646799147352614E-18 ) ) ;
#197 = DIRECTION ( 'NONE',  ( -3.491481338843133355E-15, 1.224646799147353207E-16, -1.000000000000000000 ) ) ;
#198 =( LENGTH_UNIT ( ) NAMED_UNIT ( * ) SI_UNIT ( .MILLI., .METRE. ) );
#199 = FACE_BOUND ( 'NONE', #230, .T. ) ;
#200 = ADVANCED_FACE ( 'NONE', ( #126, #140 ), #113, .F. ) ;
#201 = PERSON_AND_ORGANIZATION ( #124, #24 ) ;
#202 = FACE_OUTER_BOUND ( 'NONE', #114, .T. ) ;
#203 = CIRCLE ( 'NONE', #227, 0.05000000000000000278 ) ;
#204 = DIRECTION ( 'NONE',  ( 0.0000000000000000000, 1.000000000000000000, 0.0000000000000000000 ) ) ;
#205 = EDGE_CURVE ( 'NONE', #190, #190, #90, .T. ) ;
#206 = AXIS2_PLACEMENT_3D ( 'NONE', #219, #101, #163 ) ;
#207 = CC_DESIGN_DATE_AND_TIME_ASSIGNMENT ( #69, #125, ( #72 ) ) ;
#208 = AXIS2_PLACEMENT_3D ( 'NONE', #59, #169, #178 ) ;
#209 = CC_DESIGN_PERSON_AND_ORGANIZATION_ASSIGNMENT ( #102, #117, ( #3 ) ) ;
#210 = CARTESIAN_POINT ( 'NONE',  ( 9.121270025168804402E-15, -3.199310853021156381E-16, 2.612435565298207862 ) ) ;
#211 = CIRCLE ( 'NONE', #35, 0.7500000000000001110 ) ;
#212 = CALENDAR_DATE ( 2021, 24, 11 ) ;
#213 = DIRECTION ( 'NONE',  ( 3.491481338843133355E-15, -1.224646799147353207E-16, 1.000000000000000000 ) ) ;
#214 = CALENDAR_DATE ( 2021, 24, 11 ) ;
#215 = CARTESIAN_POINT ( 'NONE',  ( 2.367900757518973625E-14, 1.499999999999996225, 6.781937314617162649 ) ) ;
#216 = EDGE_LOOP ( 'NONE', ( #6 ) ) ;
#217 = DIRECTION ( 'NONE',  ( 1.000000000000000000, 0.0000000000000000000, 0.0000000000000000000 ) ) ;
#218 = AXIS2_PLACEMENT_3D ( 'NONE', #118, #174, #58 ) ;
#219 = CARTESIAN_POINT ( 'NONE',  ( -8.551662891793918527E-33, 2.999519565323715729E-34, -2.449293598294706769E-18 ) ) ;
#220 = LOCAL_TIME ( 7, 51, 33.00000000000000000, #175 ) ;
#221 = APPROVAL_STATUS ( 'not_yet_approved' ) ;
#222 = ADVANCED_FACE ( 'NONE', ( #107, #240 ), #34, .T. ) ;
#223 = PRODUCT_DEFINITION_SHAPE ( 'NONE', 'NONE',  #72 ) ;
#224 = CARTESIAN_POINT ( 'NONE',  ( 1.187103655206665183E-14, 0.0000000000000000000, 3.399999999999999911 ) ) ;
#225 = CARTESIAN_POINT ( 'NONE',  ( -1.710332578358783705E-32, 5.999039130647431458E-34, -4.898587196589413537E-18 ) ) ;
#226 = DIRECTION ( 'NONE',  ( 4.275831445896959482E-31, 1.000000000000000000, 1.224646799147353207E-16 ) ) ;
#227 = AXIS2_PLACEMENT_3D ( 'NONE', #225, #51, #158 ) ;
#228 = APPROVAL_PERSON_ORGANIZATION ( #157, #26, #141 ) ;
#229 = FACE_OUTER_BOUND ( 'NONE', #172, .T. ) ;
#230 = EDGE_LOOP ( 'NONE', ( #231 ) ) ;
#231 = ORIENTED_EDGE ( 'NONE', *, *, #188, .F. ) ;
#232 = DATE_AND_TIME ( #152, #151 ) ;
#233 = FACE_OUTER_BOUND ( 'NONE', #40, .T. ) ;
#234 = COORDINATED_UNIVERSAL_TIME_OFFSET ( 1, 0, .AHEAD. ) ;
#235 = CARTESIAN_POINT ( 'NONE',  ( 9.121270025168804402E-15, 0.7499999999999997780, 2.612435565298207862 ) ) ;
#236 = DIRECTION ( 'NONE',  ( -3.491481338843133355E-15, 1.224646799147353207E-16, -1.000000000000000000 ) ) ;
#237 = DATE_AND_TIME ( #21, #220 ) ;
#238 = MECHANICAL_CONTEXT ( 'NONE', #28, 'mechanical' ) ;
#239 = CARTESIAN_POINT ( 'NONE',  ( -1.710332578358783705E-32, 5.999039130647431458E-34, -4.898587196589413537E-18 ) ) ;
#240 = FACE_OUTER_BOUND ( 'NONE', #93, .T. ) ;
#241 = AXIS2_PLACEMENT_3D ( 'NONE', #42, #213, #135 ) ;
#242 = LOCAL_TIME ( 7, 51, 33.00000000000000000, #119 ) ;
#243 = CC_DESIGN_PERSON_AND_ORGANIZATION_ASSIGNMENT ( #156, #136, ( #3 ) ) ;
ENDSEC;
END-ISO-10303-21;
