ISO-10303-21;
HEADER;
FILE_DESCRIPTION (( 'STEP AP203' ),
    '1' );
FILE_NAME ('976371.step',
    '2021-11-24T06:51:32',
    ( '' ),
    ( '' ),
    'SwSTEP 2.0',
    'SolidWorks 2019',
    '' );
FILE_SCHEMA (( 'CONFIG_CONTROL_DESIGN' ));
ENDSEC;

DATA;
#1 = PLANE ( 'NONE',  #170 ) ;
#2 = DIRECTION ( 'NONE',  ( 0.0000000000000000000, 1.000000000000000000, 0.0000000000000000000 ) ) ;
#3 = DIRECTION ( 'NONE',  ( -3.491481338843133355E-15, 1.224646799147353207E-16, -1.000000000000000000 ) ) ;
#4 = ORIENTED_EDGE ( 'NONE', *, *, #220, .F. ) ;
#5 = CARTESIAN_POINT ( 'NONE',  ( 0.0000000000000000000, 0.0000000000000000000, 0.0000000000000000000 ) ) ;
#6 = EDGE_LOOP ( 'NONE', ( #213 ) ) ;
#7 = CIRCLE ( 'NONE', #143, 1.499999999999996891 ) ;
#8 = CARTESIAN_POINT ( 'NONE',  ( 2.367900757518973625E-14, -8.305477824363904586E-16, 6.781937314617162649 ) ) ;
#9 = CC_DESIGN_DATE_AND_TIME_ASSIGNMENT ( #223, #221, ( #242 ) ) ;
#10 = ORIENTED_EDGE ( 'NONE', *, *, #228, .F. ) ;
#11 = CALENDAR_DATE ( 2021, 24, 11 ) ;
#12 = ADVANCED_FACE ( 'NONE', ( #187, #78 ), #38, .T. ) ;
#13 = DATE_TIME_ROLE ( 'creation_date' ) ;
#14 = CALENDAR_DATE ( 2021, 24, 11 ) ;
#15 = APPROVAL_STATUS ( 'not_yet_approved' ) ;
#16 = PERSON_AND_ORGANIZATION ( #225, #159 ) ;
#17 = LOCAL_TIME ( 7, 51, 32.00000000000000000, #107 ) ;
#18 = CC_DESIGN_PERSON_AND_ORGANIZATION_ASSIGNMENT ( #51, #157, ( #176 ) ) ;
#19 = AXIS2_PLACEMENT_3D ( 'NONE', #237, #132, #120 ) ;
#20 = PLANE ( 'NONE',  #83 ) ;
#21 = CIRCLE ( 'NONE', #179, 1.500000000000003331 ) ;
#22 = DIRECTION ( 'NONE',  ( 0.0000000000000000000, 1.000000000000000000, 0.0000000000000000000 ) ) ;
#23 = EDGE_LOOP ( 'NONE', ( #236 ) ) ;
#24 = FACE_OUTER_BOUND ( 'NONE', #191, .T. ) ;
#25 = EDGE_LOOP ( 'NONE', ( #99 ) ) ;
#26 = EDGE_CURVE ( 'NONE', #231, #231, #147, .T. ) ;
#27 = CARTESIAN_POINT ( 'NONE',  ( 9.251573882671216209E-15, 0.7499999999999997780, 2.649756073373896736 ) ) ;
#28 = DIRECTION ( 'NONE',  ( -4.275831445896958607E-31, -1.000000000000000000, -1.224646799147353207E-16 ) ) ;
#29 = AXIS2_PLACEMENT_3D ( 'NONE', #164, #190, #93 ) ;
#30 = FACE_BOUND ( 'NONE', #168, .T. ) ;
#31 = APPROVAL_DATE_TIME ( #66, #146 ) ;
#32 = PERSON_AND_ORGANIZATION_ROLE ( 'creator' ) ;
#33 = LOCAL_TIME ( 7, 51, 32.00000000000000000, #106 ) ;
#34 = DATE_AND_TIME ( #141, #181 ) ;
#35 = CARTESIAN_POINT ( 'NONE',  ( 0.0000000000000000000, 0.0000000000000000000, 0.0000000000000000000 ) ) ;
#36 = DIRECTION ( 'NONE',  ( -3.491481338843133355E-15, 1.224646799147353207E-16, -1.000000000000000000 ) ) ;
#37 = MANIFOLD_SOLID_BREP ( 'Corps-Déplacer/Copier1[2]', #158 ) ;
#38 = CONICAL_SURFACE ( 'NONE', #195, 0.04000000000000000083, 0.2617993877991500740 ) ;
#39 = PLANE ( 'NONE',  #104 ) ;
#40 = ADVANCED_FACE ( 'NONE', ( #90, #227 ), #131, .T. ) ;
#41 = DIRECTION ( 'NONE',  ( -3.491481338843133355E-15, 1.224646799147353207E-16, -1.000000000000000000 ) ) ;
#42 = DIRECTION ( 'NONE',  ( -3.491481338843133355E-15, 1.224646799147353207E-16, -1.000000000000000000 ) ) ;
#43 = ORIENTED_EDGE ( 'NONE', *, *, #56, .F. ) ;
#44 = DIRECTION ( 'NONE',  ( -3.491481338843133355E-15, 1.224646799147353207E-16, -1.000000000000000000 ) ) ;
#45 = EDGE_LOOP ( 'NONE', ( #49 ) ) ;
#46 = DIRECTION ( 'NONE',  ( -3.491481338843133355E-15, 1.224646799147353207E-16, -1.000000000000000000 ) ) ;
#47 = CARTESIAN_POINT ( 'NONE',  ( 1.187103655206665183E-14, -4.163799117101000066E-16, 3.399999999999999467 ) ) ;
#48 =( LENGTH_UNIT ( ) NAMED_UNIT ( * ) SI_UNIT ( .MILLI., .METRE. ) );
#49 = ORIENTED_EDGE ( 'NONE', *, *, #67, .F. ) ;
#50 = DIRECTION ( 'NONE',  ( 1.000000000000000000, 0.0000000000000000000, 0.0000000000000000000 ) ) ;
#51 = PERSON_AND_ORGANIZATION ( #225, #159 ) ;
#52 = PERSON_AND_ORGANIZATION ( #225, #159 ) ;
#53 = APPROVAL_PERSON_ORGANIZATION ( #194, #105, #63 ) ;
#54 = COORDINATED_UNIVERSAL_TIME_OFFSET ( 1, 0, .AHEAD. ) ;
#55 = AXIS2_PLACEMENT_3D ( 'NONE', #35, #102, #50 ) ;
#56 = EDGE_CURVE ( 'NONE', #116, #116, #201, .T. ) ;
#57 = CC_DESIGN_SECURITY_CLASSIFICATION ( #242, ( #176 ) ) ;
#58 = CARTESIAN_POINT ( 'NONE',  ( 9.251573882671216209E-15, 1.532198022031273927E-15, 2.649756073373896736 ) ) ;
#59 = CARTESIAN_POINT ( 'NONE',  ( 1.187103655206665183E-14, 0.7500000000000006661, 3.399999999999999467 ) ) ;
#60 = EDGE_CURVE ( 'NONE', #188, #188, #92, .T. ) ;
#61 = VERTEX_POINT ( 'NONE', #118 ) ;
#62 = DIRECTION ( 'NONE',  ( 4.275831445896958607E-31, 1.000000000000000000, 1.224646799147353207E-16 ) ) ;
#63 = APPROVAL_ROLE ( '' ) ;
#64 = AXIS2_PLACEMENT_3D ( 'NONE', #203, #200, #230 ) ;
#65 = APPLICATION_PROTOCOL_DEFINITION ( 'international standard', 'config_control_design', 1994, #173 ) ;
#66 = DATE_AND_TIME ( #86, #17 ) ;
#67 = EDGE_CURVE ( 'NONE', #210, #210, #21, .T. ) ;
#68 = APPROVAL_ROLE ( '' ) ;
#69 = AXIS2_PLACEMENT_3D ( 'NONE', #185, #44, #22 ) ;
#70 = CONICAL_SURFACE ( 'NONE', #69, 1.200000000000003286, 0.7853981633974453924 ) ;
#71 = DIRECTION ( 'NONE',  ( -3.491481338843133355E-15, 1.224646799147353207E-16, -1.000000000000000000 ) ) ;
#72 = CARTESIAN_POINT ( 'NONE',  ( 1.316288464743861212E-13, -4.616918432785521081E-15, 37.69999999999999574 ) ) ;
#73 = CC_DESIGN_PERSON_AND_ORGANIZATION_ASSIGNMENT ( #140, #124, ( #242 ) ) ;
#74 = CARTESIAN_POINT ( 'NONE',  ( 9.251573882671216209E-15, 1.532198022031273927E-15, 2.649756073373896736 ) ) ;
#75 = ORIENTED_EDGE ( 'NONE', *, *, #67, .T. ) ;
#76 = CARTESIAN_POINT ( 'NONE',  ( 1.316288464743861212E-13, 1.499999999999998668, 37.69999999999999574 ) ) ;
#77 = APPROVAL_PERSON_ORGANIZATION ( #52, #123, #68 ) ;
#78 = FACE_BOUND ( 'NONE', #209, .T. ) ;
#79 = FACE_OUTER_BOUND ( 'NONE', #94, .T. ) ;
#80 = DIRECTION ( 'NONE',  ( -3.491481338843133355E-15, 1.224646799147353207E-16, -1.000000000000000000 ) ) ;
#81 = FACE_OUTER_BOUND ( 'NONE', #6, .T. ) ;
#82 =( NAMED_UNIT ( * ) SI_UNIT ( $, .STERADIAN. ) SOLID_ANGLE_UNIT ( ) );
#83 = AXIS2_PLACEMENT_3D ( 'NONE', #148, #42, #62 ) ;
#84 = PRODUCT_DEFINITION_SHAPE ( 'NONE', 'NONE',  #193 ) ;
#85 = ADVANCED_FACE ( 'NONE', ( #180 ), #91, .F. ) ;
#86 = CALENDAR_DATE ( 2021, 24, 11 ) ;
#87 = APPROVAL_DATE_TIME ( #198, #123 ) ;
#88 = LOCAL_TIME ( 7, 51, 32.00000000000000000, #54 ) ;
#89 = ADVANCED_FACE ( 'NONE', ( #150, #169 ), #222, .F. ) ;
#90 = FACE_OUTER_BOUND ( 'NONE', #211, .T. ) ;
#91 = PLANE ( 'NONE',  #19 ) ;
#92 = CIRCLE ( 'NONE', #232, 1.200000000000003286 ) ;
#93 = DIRECTION ( 'NONE',  ( 0.0000000000000000000, 1.000000000000000000, 0.0000000000000000000 ) ) ;
#94 = EDGE_LOOP ( 'NONE', ( #115 ) ) ;
#95 = CARTESIAN_POINT ( 'NONE',  ( 1.326762908760390423E-13, 1.199999999999998845, 38.00000000000000000 ) ) ;
#96 = EDGE_LOOP ( 'NONE', ( #133 ) ) ;
#97 = VERTEX_POINT ( 'NONE', #235 ) ;
#98 = UNCERTAINTY_MEASURE_WITH_UNIT (LENGTH_MEASURE( 1.000000000000000082E-05 ), #48, 'distance_accuracy_value', 'NONE');
#99 = ORIENTED_EDGE ( 'NONE', *, *, #56, .T. ) ;
#100 = DIRECTION ( 'NONE',  ( 0.0000000000000000000, 1.000000000000000000, 0.0000000000000000000 ) ) ;
#101 = ORIENTED_EDGE ( 'NONE', *, *, #186, .T. ) ;
#102 = DIRECTION ( 'NONE',  ( 0.0000000000000000000, 0.0000000000000000000, 1.000000000000000000 ) ) ;
#103 = APPROVAL_STATUS ( 'not_yet_approved' ) ;
#104 = AXIS2_PLACEMENT_3D ( 'NONE', #58, #192, #113 ) ;
#105 = APPROVAL ( #103, 'UNSPECIFIED' ) ;
#106 = COORDINATED_UNIVERSAL_TIME_OFFSET ( 1, 0, .AHEAD. ) ;
#107 = COORDINATED_UNIVERSAL_TIME_OFFSET ( 1, 0, .AHEAD. ) ;
#108 = DIRECTION ( 'NONE',  ( 0.0000000000000000000, 1.000000000000000000, 0.0000000000000000000 ) ) ;
#109 = ADVANCED_FACE ( 'NONE', ( #229 ), #20, .F. ) ;
#110 = CC_DESIGN_APPROVAL ( #123, ( #242 ) ) ;
#111 = FACE_OUTER_BOUND ( 'NONE', #45, .T. ) ;
#112 = DIRECTION ( 'NONE',  ( 4.275831445896958607E-31, 1.000000000000000000, 1.224646799147353207E-16 ) ) ;
#113 = DIRECTION ( 'NONE',  ( -4.275831445896958607E-31, -1.000000000000000000, -1.224646799147353207E-16 ) ) ;
#114 = LOCAL_TIME ( 7, 51, 32.00000000000000000, #144 ) ;
#115 = ORIENTED_EDGE ( 'NONE', *, *, #220, .T. ) ;
#116 = VERTEX_POINT ( 'NONE', #137 ) ;
#117 = ORIENTED_EDGE ( 'NONE', *, *, #26, .F. ) ;
#118 = CARTESIAN_POINT ( 'NONE',  ( 2.367900757518973625E-14, 1.499999999999996225, 6.781937314617162649 ) ) ;
#119 = EDGE_LOOP ( 'NONE', ( #75 ) ) ;
#120 = DIRECTION ( 'NONE',  ( -4.275831445896958607E-31, -1.000000000000000000, -1.224646799147353207E-16 ) ) ;
#121 = MANIFOLD_SOLID_BREP ( 'Corps-Déplacer/Copier1[1]', #199 ) ;
#122 = APPLICATION_PROTOCOL_DEFINITION ( 'international standard', 'config_control_design', 1994, #138 ) ;
#123 = APPROVAL ( #215, 'UNSPECIFIED' ) ;
#124 = PERSON_AND_ORGANIZATION_ROLE ( 'classification_officer' ) ;
#125 = AXIS2_PLACEMENT_3D ( 'NONE', #128, #41, #112 ) ;
#126 = PERSON_AND_ORGANIZATION_ROLE ( 'design_owner' ) ;
#127 = CALENDAR_DATE ( 2021, 24, 11 ) ;
#128 = CARTESIAN_POINT ( 'NONE',  ( -1.068957861474239405E-32, 3.749399456654643592E-34, -3.061616997868382402E-18 ) ) ;
#129 = CC_DESIGN_PERSON_AND_ORGANIZATION_ASSIGNMENT ( #218, #32, ( #176 ) ) ;
#130 = CIRCLE ( 'NONE', #29, 0.7500000000000001110 ) ;
#131 = CYLINDRICAL_SURFACE ( 'NONE', #64, 1.500000000000000000 ) ;
#132 = DIRECTION ( 'NONE',  ( 3.491481338843133355E-15, -1.224646799147353207E-16, 1.000000000000000000 ) ) ;
#133 = ORIENTED_EDGE ( 'NONE', *, *, #228, .T. ) ;
#134 = FACE_OUTER_BOUND ( 'NONE', #135, .T. ) ;
#135 = EDGE_LOOP ( 'NONE', ( #4 ) ) ;
#136 = CARTESIAN_POINT ( 'NONE',  ( 9.251573882671216209E-15, -3.245015293778601810E-16, 2.649756073373896736 ) ) ;
#137 = CARTESIAN_POINT ( 'NONE',  ( 6.413747168845440264E-33, 0.04000000000000000083, 1.836970198721030365E-18 ) ) ;
#138 = APPLICATION_CONTEXT ( 'configuration controlled 3d designs of mechanical parts and assemblies' ) ;
#139 = EDGE_LOOP ( 'NONE', ( #101 ) ) ;
#140 = PERSON_AND_ORGANIZATION ( #225, #159 ) ;
#141 = CALENDAR_DATE ( 2021, 24, 11 ) ;
#142 = COORDINATED_UNIVERSAL_TIME_OFFSET ( 1, 0, .AHEAD. ) ;
#143 = AXIS2_PLACEMENT_3D ( 'NONE', #8, #3, #208 ) ;
#144 = COORDINATED_UNIVERSAL_TIME_OFFSET ( 1, 0, .AHEAD. ) ;
#145 = AXIS2_PLACEMENT_3D ( 'NONE', #204, #46, #172 ) ;
#146 = APPROVAL ( #15, 'UNSPECIFIED' ) ;
#147 = CIRCLE ( 'NONE', #216, 0.7500000000000011102 ) ;
#148 = CARTESIAN_POINT ( 'NONE',  ( 1.326762908760390423E-13, 8.998558695971103225E-33, 38.00000000000000000 ) ) ;
#149 = DIRECTION ( 'NONE',  ( 4.275831445896958607E-31, 1.000000000000000000, 1.224646799147353207E-16 ) ) ;
#150 = FACE_OUTER_BOUND ( 'NONE', #139, .T. ) ;
#151 = CARTESIAN_POINT ( 'NONE',  ( -1.068957861474239405E-32, 3.749399456654643592E-34, -3.061616997868382402E-18 ) ) ;
#152 = VERTEX_POINT ( 'NONE', #27 ) ;
#153 = DIRECTION ( 'NONE',  ( 0.0000000000000000000, 1.000000000000000000, 0.0000000000000000000 ) ) ;
#154 = APPROVAL_ROLE ( '' ) ;
#155 = APPROVAL_PERSON_ORGANIZATION ( #178, #146, #154 ) ;
#156 = PERSON_AND_ORGANIZATION ( #225, #159 ) ;
#157 = PERSON_AND_ORGANIZATION_ROLE ( 'design_supplier' ) ;
#158 = CLOSED_SHELL ( 'NONE', ( #85, #12, #160 ) ) ;
#159 = ORGANIZATION ( 'UNSPECIFIED', 'UNSPECIFIED', '' ) ;
#160 = ADVANCED_FACE ( 'NONE', ( #24 ), #39, .T. ) ;
#161 = SHAPE_DEFINITION_REPRESENTATION ( #84, #162 ) ;
#162 = ADVANCED_BREP_SHAPE_REPRESENTATION ( '976371', ( #121, #37, #55 ), #163 ) ;
#163 =( GEOMETRIC_REPRESENTATION_CONTEXT ( 3 ) GLOBAL_UNCERTAINTY_ASSIGNED_CONTEXT ( ( #98 ) ) GLOBAL_UNIT_ASSIGNED_CONTEXT ( ( #48, #175, #82 ) ) REPRESENTATION_CONTEXT ( 'NONE', 'WORKASPACE' ) );
#164 = CARTESIAN_POINT ( 'NONE',  ( 9.251573882671216209E-15, -3.245015293778601810E-16, 2.649756073373896736 ) ) ;
#165 = DIRECTION ( 'NONE',  ( -3.491481338843133355E-15, 1.224646799147353207E-16, -1.000000000000000000 ) ) ;
#166 = DIRECTION ( 'NONE',  ( -4.275831445896958607E-31, -1.000000000000000000, -1.224646799147353207E-16 ) ) ;
#167 = CYLINDRICAL_SURFACE ( 'NONE', #217, 0.7500000000000006661 ) ;
#168 = EDGE_LOOP ( 'NONE', ( #206 ) ) ;
#169 = FACE_OUTER_BOUND ( 'NONE', #189, .T. ) ;
#170 = AXIS2_PLACEMENT_3D ( 'NONE', #74, #182, #166 ) ;
#171 = ORIENTED_EDGE ( 'NONE', *, *, #186, .F. ) ;
#172 = DIRECTION ( 'NONE',  ( 4.355100981429076768E-31, 1.000000000000000000, 1.224646799147353207E-16 ) ) ;
#173 = APPLICATION_CONTEXT ( 'configuration controlled 3d designs of mechanical parts and assemblies' ) ;
#174 = MECHANICAL_CONTEXT ( 'NONE', #138, 'mechanical' ) ;
#175 =( NAMED_UNIT ( * ) PLANE_ANGLE_UNIT ( ) SI_UNIT ( $, .RADIAN. ) );
#176 = PRODUCT_DEFINITION_FORMATION_WITH_SPECIFIED_SOURCE ( 'ANY', '', #177, .NOT_KNOWN. ) ;
#177 = PRODUCT ( '976371', '976371', '', ( #174 ) ) ;
#178 = PERSON_AND_ORGANIZATION ( #225, #159 ) ;
#179 = AXIS2_PLACEMENT_3D ( 'NONE', #72, #36, #108 ) ;
#180 = FACE_OUTER_BOUND ( 'NONE', #25, .T. ) ;
#181 = LOCAL_TIME ( 7, 51, 32.00000000000000000, #142 ) ;
#182 = DIRECTION ( 'NONE',  ( 3.491481338843133355E-15, -1.224646799147353207E-16, 1.000000000000000000 ) ) ;
#183 = CARTESIAN_POINT ( 'NONE',  ( 1.326762908760390423E-13, -4.653657836759941941E-15, 38.00000000000000000 ) ) ;
#184 = CC_DESIGN_APPROVAL ( #146, ( #193 ) ) ;
#185 = CARTESIAN_POINT ( 'NONE',  ( 1.326762908760390423E-13, -4.653657836759941941E-15, 38.00000000000000000 ) ) ;
#186 = EDGE_CURVE ( 'NONE', #61, #61, #7, .T. ) ;
#187 = FACE_OUTER_BOUND ( 'NONE', #96, .T. ) ;
#188 = VERTEX_POINT ( 'NONE', #95 ) ;
#189 = EDGE_LOOP ( 'NONE', ( #117 ) ) ;
#190 = DIRECTION ( 'NONE',  ( -3.491481338843133355E-15, 1.224646799147353207E-16, -1.000000000000000000 ) ) ;
#191 = EDGE_LOOP ( 'NONE', ( #10 ) ) ;
#192 = DIRECTION ( 'NONE',  ( 3.491481338843133355E-15, -1.224646799147353207E-16, 1.000000000000000000 ) ) ;
#193 = PRODUCT_DEFINITION ( 'UNKNOWN', '', #176, #212 ) ;
#194 = PERSON_AND_ORGANIZATION ( #225, #159 ) ;
#195 = AXIS2_PLACEMENT_3D ( 'NONE', #151, #234, #28 ) ;
#196 = PRODUCT_RELATED_PRODUCT_CATEGORY ( 'detail', '', ( #177 ) ) ;
#197 = DATE_AND_TIME ( #11, #114 ) ;
#198 = DATE_AND_TIME ( #127, #88 ) ;
#199 = CLOSED_SHELL ( 'NONE', ( #241, #226, #89, #40, #205, #109 ) ) ;
#200 = DIRECTION ( 'NONE',  ( -3.491481338843133355E-15, 1.224646799147353207E-16, -1.000000000000000000 ) ) ;
#201 = CIRCLE ( 'NONE', #125, 0.04000000000000000083 ) ;
#202 = CC_DESIGN_PERSON_AND_ORGANIZATION_ASSIGNMENT ( #16, #239, ( #193 ) ) ;
#203 = CARTESIAN_POINT ( 'NONE',  ( 0.0000000000000000000, 0.0000000000000000000, 0.0000000000000000000 ) ) ;
#204 = CARTESIAN_POINT ( 'NONE',  ( 1.187103655206665183E-14, 0.0000000000000000000, 3.399999999999999911 ) ) ;
#205 = ADVANCED_FACE ( 'NONE', ( #111, #30 ), #70, .T. ) ;
#206 = ORIENTED_EDGE ( 'NONE', *, *, #60, .T. ) ;
#207 = CC_DESIGN_APPROVAL ( #105, ( #176 ) ) ;
#208 = DIRECTION ( 'NONE',  ( 0.0000000000000000000, 1.000000000000000000, 0.0000000000000000000 ) ) ;
#209 = EDGE_LOOP ( 'NONE', ( #43 ) ) ;
#210 = VERTEX_POINT ( 'NONE', #76 ) ;
#211 = EDGE_LOOP ( 'NONE', ( #171 ) ) ;
#212 = DESIGN_CONTEXT ( 'detailed design', #173, 'design' ) ;
#213 = ORIENTED_EDGE ( 'NONE', *, *, #26, .T. ) ;
#214 = CC_DESIGN_PERSON_AND_ORGANIZATION_ASSIGNMENT ( #156, #126, ( #177 ) ) ;
#215 = APPROVAL_STATUS ( 'not_yet_approved' ) ;
#216 = AXIS2_PLACEMENT_3D ( 'NONE', #47, #80, #153 ) ;
#217 = AXIS2_PLACEMENT_3D ( 'NONE', #5, #233, #149 ) ;
#218 = PERSON_AND_ORGANIZATION ( #225, #159 ) ;
#219 = APPROVAL_DATE_TIME ( #34, #105 ) ;
#220 = EDGE_CURVE ( 'NONE', #152, #152, #238, .T. ) ;
#221 = DATE_TIME_ROLE ( 'classification_date' ) ;
#222 = TOROIDAL_SURFACE ( 'NONE', #145, 8.750000000000000000, 8.000000000000000000 ) ;
#223 = DATE_AND_TIME ( #14, #33 ) ;
#224 = AXIS2_PLACEMENT_3D ( 'NONE', #136, #71, #100 ) ;
#225 = PERSON ( 'UNSPECIFIED', 'UNSPECIFIED', 'UNSPECIFIED', ('UNSPECIFIED'), ('UNSPECIFIED'), ('UNSPECIFIED') ) ;
#226 = ADVANCED_FACE ( 'NONE', ( #81, #134 ), #167, .T. ) ;
#227 = FACE_OUTER_BOUND ( 'NONE', #119, .T. ) ;
#228 = EDGE_CURVE ( 'NONE', #97, #97, #130, .T. ) ;
#229 = FACE_OUTER_BOUND ( 'NONE', #23, .T. ) ;
#230 = DIRECTION ( 'NONE',  ( 4.275831445896959482E-31, 1.000000000000000000, 1.224646799147353207E-16 ) ) ;
#231 = VERTEX_POINT ( 'NONE', #59 ) ;
#232 = AXIS2_PLACEMENT_3D ( 'NONE', #183, #165, #2 ) ;
#233 = DIRECTION ( 'NONE',  ( -3.491481338843133355E-15, 1.224646799147353207E-16, -1.000000000000000000 ) ) ;
#234 = DIRECTION ( 'NONE',  ( 3.491481338843133355E-15, -1.224646799147353207E-16, 1.000000000000000000 ) ) ;
#235 = CARTESIAN_POINT ( 'NONE',  ( 9.251573882671216209E-15, 0.7499999999999997780, 2.649756073373896736 ) ) ;
#236 = ORIENTED_EDGE ( 'NONE', *, *, #60, .F. ) ;
#237 = CARTESIAN_POINT ( 'NONE',  ( -5.344789307371197027E-33, 1.874699728327321796E-34, -1.530808498934191201E-18 ) ) ;
#238 = CIRCLE ( 'NONE', #224, 0.7500000000000001110 ) ;
#239 = PERSON_AND_ORGANIZATION_ROLE ( 'creator' ) ;
#240 = SECURITY_CLASSIFICATION_LEVEL ( 'unclassified' ) ;
#241 = ADVANCED_FACE ( 'NONE', ( #79 ), #1, .F. ) ;
#242 = SECURITY_CLASSIFICATION ( '', '', #240 ) ;
#243 = CC_DESIGN_DATE_AND_TIME_ASSIGNMENT ( #197, #13, ( #193 ) ) ;
ENDSEC;
END-ISO-10303-21;
