ISO-10303-21;
HEADER;
FILE_DESCRIPTION (( 'STEP AP203' ),
    '1' );
FILE_NAME ('976370.step',
    '2021-11-24T06:51:32',
    ( '' ),
    ( '' ),
    'SwSTEP 2.0',
    'SolidWorks 2019',
    '' );
FILE_SCHEMA (( 'CONFIG_CONTROL_DESIGN' ));
ENDSEC;

DATA;
#1 = ORGANIZATION ( 'UNSPECIFIED', 'UNSPECIFIED', '' ) ;
#2 = PRODUCT_DEFINITION ( 'UNKNOWN', '', #97, #125 ) ;
#3 = APPROVAL_ROLE ( '' ) ;
#4 = ORIENTED_EDGE ( 'NONE', *, *, #122, .F. ) ;
#5 = FACE_OUTER_BOUND ( 'NONE', #40, .T. ) ;
#6 = DIRECTION ( 'NONE',  ( -3.491481338843133355E-15, 1.224646799147353207E-16, -1.000000000000000000 ) ) ;
#7 = FACE_BOUND ( 'NONE', #56, .T. ) ;
#8 = DIRECTION ( 'NONE',  ( -3.491481338843133355E-15, 1.224646799147353207E-16, -1.000000000000000000 ) ) ;
#9 = ADVANCED_FACE ( 'NONE', ( #103, #175 ), #239, .T. ) ;
#10 = FACE_OUTER_BOUND ( 'NONE', #224, .T. ) ;
#11 = CYLINDRICAL_SURFACE ( 'NONE', #145, 1.500000000000000000 ) ;
#12 = DIRECTION ( 'NONE',  ( -3.491481338843133355E-15, 1.224646799147353207E-16, -1.000000000000000000 ) ) ;
#13 = EDGE_CURVE ( 'NONE', #157, #157, #90, .T. ) ;
#14 = CC_DESIGN_APPROVAL ( #227, ( #97 ) ) ;
#15 = UNCERTAINTY_MEASURE_WITH_UNIT (LENGTH_MEASURE( 1.000000000000000082E-05 ), #65, 'distance_accuracy_value', 'NONE');
#16 = CARTESIAN_POINT ( 'NONE',  ( 1.187103655206665183E-14, 0.0000000000000000000, 3.399999999999999911 ) ) ;
#17 = AXIS2_PLACEMENT_3D ( 'NONE', #195, #6, #61 ) ;
#18 = APPLICATION_PROTOCOL_DEFINITION ( 'international standard', 'config_control_design', 1994, #167 ) ;
#19 = ADVANCED_FACE ( 'NONE', ( #46 ), #82, .F. ) ;
#20 = PERSON_AND_ORGANIZATION ( #160, #1 ) ;
#21 = PERSON_AND_ORGANIZATION_ROLE ( 'classification_officer' ) ;
#22 = DIRECTION ( 'NONE',  ( -3.491481338843133355E-15, 1.224646799147353207E-16, -1.000000000000000000 ) ) ;
#23 = CYLINDRICAL_SURFACE ( 'NONE', #130, 0.7500000000000004441 ) ;
#24 = DIRECTION ( 'NONE',  ( -3.491481338843133355E-15, 1.224646799147353207E-16, -1.000000000000000000 ) ) ;
#25 = VERTEX_POINT ( 'NONE', #64 ) ;
#26 = CARTESIAN_POINT ( 'NONE',  ( 0.0000000000000000000, 0.0000000000000000000, 0.0000000000000000000 ) ) ;
#27 = LOCAL_TIME ( 7, 51, 32.00000000000000000, #98 ) ;
#28 = DIRECTION ( 'NONE',  ( -3.491481338843133355E-15, 1.224646799147353207E-16, -1.000000000000000000 ) ) ;
#29 = DIRECTION ( 'NONE',  ( -3.491481338843133355E-15, 1.224646799147353207E-16, -1.000000000000000000 ) ) ;
#30 = CC_DESIGN_DATE_AND_TIME_ASSIGNMENT ( #76, #135, ( #87 ) ) ;
#31 = CONICAL_SURFACE ( 'NONE', #184, 1.200000000000003286, 0.7853981633974453924 ) ;
#32 = LOCAL_TIME ( 7, 51, 32.00000000000000000, #39 ) ;
#33 = DIRECTION ( 'NONE',  ( -3.491481338843133355E-15, 1.224646799147353207E-16, -1.000000000000000000 ) ) ;
#34 = EDGE_CURVE ( 'NONE', #194, #194, #80, .T. ) ;
#35 = EDGE_LOOP ( 'NONE', ( #4 ) ) ;
#36 = AXIS2_PLACEMENT_3D ( 'NONE', #140, #24, #177 ) ;
#37 = PERSON_AND_ORGANIZATION ( #160, #1 ) ;
#38 = ORIENTED_EDGE ( 'NONE', *, *, #34, .T. ) ;
#39 = COORDINATED_UNIVERSAL_TIME_OFFSET ( 1, 0, .AHEAD. ) ;
#40 = EDGE_LOOP ( 'NONE', ( #129 ) ) ;
#41 = PERSON_AND_ORGANIZATION_ROLE ( 'creator' ) ;
#42 = CIRCLE ( 'NONE', #124, 1.499999999999996891 ) ;
#43 = APPROVAL_ROLE ( '' ) ;
#44 = FACE_OUTER_BOUND ( 'NONE', #138, .T. ) ;
#45 = VERTEX_POINT ( 'NONE', #155 ) ;
#46 = FACE_OUTER_BOUND ( 'NONE', #201, .T. ) ;
#47 = CARTESIAN_POINT ( 'NONE',  ( 1.187103655206665183E-14, -4.163799117101000066E-16, 3.399999999999999467 ) ) ;
#48 = CARTESIAN_POINT ( 'NONE',  ( 9.447029668924834708E-15, 0.7499999999999995559, 2.705736835487429826 ) ) ;
#49 = CC_DESIGN_PERSON_AND_ORGANIZATION_ASSIGNMENT ( #96, #131, ( #97 ) ) ;
#50 = AXIS2_PLACEMENT_3D ( 'NONE', #158, #8, #115 ) ;
#51 = CC_DESIGN_PERSON_AND_ORGANIZATION_ASSIGNMENT ( #20, #241, ( #88 ) ) ;
#52 = ADVANCED_FACE ( 'NONE', ( #229 ), #193, .F. ) ;
#53 = PERSON_AND_ORGANIZATION_ROLE ( 'creator' ) ;
#54 = EDGE_LOOP ( 'NONE', ( #169 ) ) ;
#55 = APPROVAL_PERSON_ORGANIZATION ( #58, #227, #3 ) ;
#56 = EDGE_LOOP ( 'NONE', ( #94 ) ) ;
#57 = COORDINATED_UNIVERSAL_TIME_OFFSET ( 1, 0, .AHEAD. ) ;
#58 = PERSON_AND_ORGANIZATION ( #160, #1 ) ;
#59 = ORIENTED_EDGE ( 'NONE', *, *, #110, .T. ) ;
#60 = CIRCLE ( 'NONE', #136, 0.02500000000000000139 ) ;
#61 = DIRECTION ( 'NONE',  ( 0.0000000000000000000, 1.000000000000000000, 0.0000000000000000000 ) ) ;
#62 =( NAMED_UNIT ( * ) PLANE_ANGLE_UNIT ( ) SI_UNIT ( $, .RADIAN. ) );
#63 = CARTESIAN_POINT ( 'NONE',  ( -8.551662891793918527E-33, 2.999519565323715729E-34, -2.449293598294706769E-18 ) ) ;
#64 = CARTESIAN_POINT ( 'NONE',  ( 9.447029668924834708E-15, 0.7499999999999995559, 2.705736835487429826 ) ) ;
#65 =( LENGTH_UNIT ( ) NAMED_UNIT ( * ) SI_UNIT ( .MILLI., .METRE. ) );
#66 = AXIS2_PLACEMENT_3D ( 'NONE', #213, #156, #182 ) ;
#67 = AXIS2_PLACEMENT_3D ( 'NONE', #100, #101, #211 ) ;
#68 = ADVANCED_FACE ( 'NONE', ( #78, #44 ), #11, .T. ) ;
#69 = PERSON_AND_ORGANIZATION ( #160, #1 ) ;
#70 = APPROVAL_STATUS ( 'not_yet_approved' ) ;
#71 = PERSON_AND_ORGANIZATION ( #160, #1 ) ;
#72 = ORIENTED_EDGE ( 'NONE', *, *, #13, .F. ) ;
#73 = CIRCLE ( 'NONE', #66, 0.7499999999999998890 ) ;
#74 = DIRECTION ( 'NONE',  ( 0.0000000000000000000, 0.0000000000000000000, 1.000000000000000000 ) ) ;
#75 = EDGE_LOOP ( 'NONE', ( #132 ) ) ;
#76 = DATE_AND_TIME ( #218, #144 ) ;
#77 = EDGE_LOOP ( 'NONE', ( #219 ) ) ;
#78 = FACE_OUTER_BOUND ( 'NONE', #209, .T. ) ;
#79 = EDGE_CURVE ( 'NONE', #137, #137, #42, .T. ) ;
#80 = CIRCLE ( 'NONE', #17, 1.500000000000003331 ) ;
#81 =( NAMED_UNIT ( * ) SI_UNIT ( $, .STERADIAN. ) SOLID_ANGLE_UNIT ( ) );
#82 = PLANE ( 'NONE',  #187 ) ;
#83 = DIRECTION ( 'NONE',  ( 0.0000000000000000000, 1.000000000000000000, 0.0000000000000000000 ) ) ;
#84 = DIRECTION ( 'NONE',  ( 0.0000000000000000000, 1.000000000000000000, 0.0000000000000000000 ) ) ;
#85 = CC_DESIGN_DATE_AND_TIME_ASSIGNMENT ( #220, #243, ( #2 ) ) ;
#86 = CARTESIAN_POINT ( 'NONE',  ( 2.367900757518973625E-14, 1.499999999999996225, 6.781937314617162649 ) ) ;
#87 = SECURITY_CLASSIFICATION ( '', '', #188 ) ;
#88 = PRODUCT ( '976370', '976370', '', ( #109 ) ) ;
#89 = FACE_OUTER_BOUND ( 'NONE', #206, .T. ) ;
#90 = CIRCLE ( 'NONE', #50, 0.7499999999999998890 ) ;
#91 = FACE_OUTER_BOUND ( 'NONE', #54, .T. ) ;
#92 = CC_DESIGN_PERSON_AND_ORGANIZATION_ASSIGNMENT ( #69, #21, ( #87 ) ) ;
#93 =( GEOMETRIC_REPRESENTATION_CONTEXT ( 3 ) GLOBAL_UNCERTAINTY_ASSIGNED_CONTEXT ( ( #15 ) ) GLOBAL_UNIT_ASSIGNED_CONTEXT ( ( #65, #62, #81 ) ) REPRESENTATION_CONTEXT ( 'NONE', 'WORKASPACE' ) );
#94 = ORIENTED_EDGE ( 'NONE', *, *, #122, .T. ) ;
#95 = EDGE_CURVE ( 'NONE', #25, #25, #73, .T. ) ;
#96 = PERSON_AND_ORGANIZATION ( #160, #1 ) ;
#97 = PRODUCT_DEFINITION_FORMATION_WITH_SPECIFIED_SOURCE ( 'ANY', '', #88, .NOT_KNOWN. ) ;
#98 = COORDINATED_UNIVERSAL_TIME_OFFSET ( 1, 0, .AHEAD. ) ;
#99 = ADVANCED_FACE ( 'NONE', ( #89, #91 ), #181, .F. ) ;
#100 = CARTESIAN_POINT ( 'NONE',  ( -1.710332578358783705E-32, 5.999039130647431458E-34, -4.898587196589413537E-18 ) ) ;
#101 = DIRECTION ( 'NONE',  ( 3.491481338843133355E-15, -1.224646799147353207E-16, 1.000000000000000000 ) ) ;
#102 = AXIS2_PLACEMENT_3D ( 'NONE', #164, #238, #146 ) ;
#103 = FACE_OUTER_BOUND ( 'NONE', #75, .T. ) ;
#104 = CARTESIAN_POINT ( 'NONE',  ( 1.326762908760390423E-13, 1.199999999999998845, 38.00000000000000000 ) ) ;
#105 = CALENDAR_DATE ( 2021, 24, 11 ) ;
#106 = ORIENTED_EDGE ( 'NONE', *, *, #95, .F. ) ;
#107 = EDGE_LOOP ( 'NONE', ( #72 ) ) ;
#108 = FACE_OUTER_BOUND ( 'NONE', #107, .T. ) ;
#109 = MECHANICAL_CONTEXT ( 'NONE', #126, 'mechanical' ) ;
#110 = EDGE_CURVE ( 'NONE', #161, #161, #60, .T. ) ;
#111 = APPROVAL_DATE_TIME ( #147, #237 ) ;
#112 = DIRECTION ( 'NONE',  ( -3.491481338843133355E-15, 1.224646799147353207E-16, -1.000000000000000000 ) ) ;
#113 = CARTESIAN_POINT ( 'NONE',  ( 1.316288464743861212E-13, 1.499999999999998668, 37.69999999999999574 ) ) ;
#114 = MANIFOLD_SOLID_BREP ( 'Corps-Déplacer/Copier1[2]', #185 ) ;
#115 = DIRECTION ( 'NONE',  ( 0.0000000000000000000, 1.000000000000000000, 0.0000000000000000000 ) ) ;
#116 = DIRECTION ( 'NONE',  ( -4.275831445896958607E-31, -1.000000000000000000, -1.224646799147353207E-16 ) ) ;
#117 = DIRECTION ( 'NONE',  ( -4.275831445896958607E-31, -1.000000000000000000, -1.224646799147353207E-16 ) ) ;
#118 = ADVANCED_BREP_SHAPE_REPRESENTATION ( '976370', ( #199, #114, #165 ), #93 ) ;
#119 = PLANE ( 'NONE',  #204 ) ;
#120 = LOCAL_TIME ( 7, 51, 32.00000000000000000, #57 ) ;
#121 = VERTEX_POINT ( 'NONE', #104 ) ;
#122 = EDGE_CURVE ( 'NONE', #121, #121, #214, .T. ) ;
#123 = CIRCLE ( 'NONE', #236, 0.7500000000000011102 ) ;
#124 = AXIS2_PLACEMENT_3D ( 'NONE', #191, #22, #84 ) ;
#125 = DESIGN_CONTEXT ( 'detailed design', #167, 'design' ) ;
#126 = APPLICATION_CONTEXT ( 'configuration controlled 3d designs of mechanical parts and assemblies' ) ;
#127 = ORIENTED_EDGE ( 'NONE', *, *, #34, .F. ) ;
#128 = PERSON_AND_ORGANIZATION ( #160, #1 ) ;
#129 = ORIENTED_EDGE ( 'NONE', *, *, #134, .T. ) ;
#130 = AXIS2_PLACEMENT_3D ( 'NONE', #197, #28, #228 ) ;
#131 = PERSON_AND_ORGANIZATION_ROLE ( 'design_supplier' ) ;
#132 = ORIENTED_EDGE ( 'NONE', *, *, #13, .T. ) ;
#133 = CALENDAR_DATE ( 2021, 24, 11 ) ;
#134 = EDGE_CURVE ( 'NONE', #45, #45, #123, .T. ) ;
#135 = DATE_TIME_ROLE ( 'classification_date' ) ;
#136 = AXIS2_PLACEMENT_3D ( 'NONE', #216, #33, #200 ) ;
#137 = VERTEX_POINT ( 'NONE', #86 ) ;
#138 = EDGE_LOOP ( 'NONE', ( #38 ) ) ;
#139 = ADVANCED_FACE ( 'NONE', ( #108 ), #119, .T. ) ;
#140 = CARTESIAN_POINT ( 'NONE',  ( 1.326762908760390423E-13, 8.998558695971103225E-33, 38.00000000000000000 ) ) ;
#141 = DIRECTION ( 'NONE',  ( 3.491481338843133355E-15, -1.224646799147353207E-16, 1.000000000000000000 ) ) ;
#142 = APPROVAL_PERSON_ORGANIZATION ( #37, #202, #223 ) ;
#143 = ADVANCED_FACE ( 'NONE', ( #180, #7 ), #31, .T. ) ;
#144 = LOCAL_TIME ( 7, 51, 32.00000000000000000, #240 ) ;
#145 = AXIS2_PLACEMENT_3D ( 'NONE', #26, #112, #231 ) ;
#146 = DIRECTION ( 'NONE',  ( 0.0000000000000000000, 1.000000000000000000, 0.0000000000000000000 ) ) ;
#147 = DATE_AND_TIME ( #133, #32 ) ;
#148 = ADVANCED_FACE ( 'NONE', ( #5, #10 ), #23, .T. ) ;
#149 = APPROVAL_STATUS ( 'not_yet_approved' ) ;
#150 = COORDINATED_UNIVERSAL_TIME_OFFSET ( 1, 0, .AHEAD. ) ;
#151 = ORIENTED_EDGE ( 'NONE', *, *, #95, .T. ) ;
#152 = APPROVAL_PERSON_ORGANIZATION ( #225, #237, #43 ) ;
#153 = DIRECTION ( 'NONE',  ( 0.0000000000000000000, 1.000000000000000000, 0.0000000000000000000 ) ) ;
#154 = DATE_AND_TIME ( #170, #120 ) ;
#155 = CARTESIAN_POINT ( 'NONE',  ( 1.187103655206665183E-14, 0.7500000000000006661, 3.399999999999999467 ) ) ;
#156 = DIRECTION ( 'NONE',  ( -3.491481338843133355E-15, 1.224646799147353207E-16, -1.000000000000000000 ) ) ;
#157 = VERTEX_POINT ( 'NONE', #48 ) ;
#158 = CARTESIAN_POINT ( 'NONE',  ( 9.447029668924834708E-15, -3.313571954914769461E-16, 2.705736835487429826 ) ) ;
#159 = CARTESIAN_POINT ( 'NONE',  ( 9.447029668924834708E-15, 1.564568402778413657E-15, 2.705736835487430270 ) ) ;
#160 = PERSON ( 'UNSPECIFIED', 'UNSPECIFIED', 'UNSPECIFIED', ('UNSPECIFIED'), ('UNSPECIFIED'), ('UNSPECIFIED') ) ;
#161 = VERTEX_POINT ( 'NONE', #192 ) ;
#162 = LOCAL_TIME ( 7, 51, 32.00000000000000000, #150 ) ;
#163 = DIRECTION ( 'NONE',  ( 4.355100981429076768E-31, 1.000000000000000000, 1.224646799147353207E-16 ) ) ;
#164 = CARTESIAN_POINT ( 'NONE',  ( 1.326762908760390423E-13, -4.653657836759941941E-15, 38.00000000000000000 ) ) ;
#165 = AXIS2_PLACEMENT_3D ( 'NONE', #168, #74, #190 ) ;
#166 = PRODUCT_RELATED_PRODUCT_CATEGORY ( 'detail', '', ( #88 ) ) ;
#167 = APPLICATION_CONTEXT ( 'configuration controlled 3d designs of mechanical parts and assemblies' ) ;
#168 = CARTESIAN_POINT ( 'NONE',  ( 0.0000000000000000000, 0.0000000000000000000, 0.0000000000000000000 ) ) ;
#169 = ORIENTED_EDGE ( 'NONE', *, *, #134, .F. ) ;
#170 = CALENDAR_DATE ( 2021, 24, 11 ) ;
#171 = ADVANCED_FACE ( 'NONE', ( #233 ), #212, .F. ) ;
#172 = CC_DESIGN_APPROVAL ( #237, ( #87 ) ) ;
#173 = DATE_AND_TIME ( #208, #27 ) ;
#174 = APPLICATION_PROTOCOL_DEFINITION ( 'international standard', 'config_control_design', 1994, #126 ) ;
#175 = FACE_BOUND ( 'NONE', #77, .T. ) ;
#176 = DIRECTION ( 'NONE',  ( 3.491481338843133355E-15, -1.224646799147353207E-16, 1.000000000000000000 ) ) ;
#177 = DIRECTION ( 'NONE',  ( 4.275831445896958607E-31, 1.000000000000000000, 1.224646799147353207E-16 ) ) ;
#178 = DIRECTION ( 'NONE',  ( -4.275831445896958607E-31, -1.000000000000000000, -1.224646799147353207E-16 ) ) ;
#179 = DIRECTION ( 'NONE',  ( 3.491481338843133355E-15, -1.224646799147353207E-16, 1.000000000000000000 ) ) ;
#180 = FACE_OUTER_BOUND ( 'NONE', #222, .T. ) ;
#181 = TOROIDAL_SURFACE ( 'NONE', #215, 8.750000000000000000, 8.000000000000000000 ) ;
#182 = DIRECTION ( 'NONE',  ( 0.0000000000000000000, 1.000000000000000000, 0.0000000000000000000 ) ) ;
#183 = DIRECTION ( 'NONE',  ( -3.491481338843133355E-15, 1.224646799147353207E-16, -1.000000000000000000 ) ) ;
#184 = AXIS2_PLACEMENT_3D ( 'NONE', #232, #12, #83 ) ;
#185 = CLOSED_SHELL ( 'NONE', ( #19, #9, #139 ) ) ;
#186 = EDGE_LOOP ( 'NONE', ( #151 ) ) ;
#187 = AXIS2_PLACEMENT_3D ( 'NONE', #63, #179, #117 ) ;
#188 = SECURITY_CLASSIFICATION_LEVEL ( 'unclassified' ) ;
#189 = APPROVAL_DATE_TIME ( #173, #202 ) ;
#190 = DIRECTION ( 'NONE',  ( 1.000000000000000000, 0.0000000000000000000, 0.0000000000000000000 ) ) ;
#191 = CARTESIAN_POINT ( 'NONE',  ( 2.367900757518973625E-14, -8.305477824363904586E-16, 6.781937314617162649 ) ) ;
#192 = CARTESIAN_POINT ( 'NONE',  ( -6.413747168845440264E-33, 0.02500000000000000139, -1.836970198721030365E-18 ) ) ;
#193 = PLANE ( 'NONE',  #36 ) ;
#194 = VERTEX_POINT ( 'NONE', #113 ) ;
#195 = CARTESIAN_POINT ( 'NONE',  ( 1.316288464743861212E-13, -4.616918432785521081E-15, 37.69999999999999574 ) ) ;
#196 = AXIS2_PLACEMENT_3D ( 'NONE', #159, #141, #116 ) ;
#197 = CARTESIAN_POINT ( 'NONE',  ( 0.0000000000000000000, 0.0000000000000000000, 0.0000000000000000000 ) ) ;
#198 = CC_DESIGN_PERSON_AND_ORGANIZATION_ASSIGNMENT ( #71, #53, ( #2 ) ) ;
#199 = MANIFOLD_SOLID_BREP ( 'Corps-Déplacer/Copier1[1]', #230 ) ;
#200 = DIRECTION ( 'NONE',  ( 4.275831445896958607E-31, 1.000000000000000000, 1.224646799147353207E-16 ) ) ;
#201 = EDGE_LOOP ( 'NONE', ( #59 ) ) ;
#202 = APPROVAL ( #70, 'UNSPECIFIED' ) ;
#203 = APPROVAL_DATE_TIME ( #154, #227 ) ;
#204 = AXIS2_PLACEMENT_3D ( 'NONE', #210, #176, #178 ) ;
#205 = APPROVAL_STATUS ( 'not_yet_approved' ) ;
#206 = EDGE_LOOP ( 'NONE', ( #242 ) ) ;
#207 = SHAPE_DEFINITION_REPRESENTATION ( #217, #118 ) ;
#208 = CALENDAR_DATE ( 2021, 24, 11 ) ;
#209 = EDGE_LOOP ( 'NONE', ( #226 ) ) ;
#210 = CARTESIAN_POINT ( 'NONE',  ( 9.447029668924834708E-15, 1.564568402778413657E-15, 2.705736835487430270 ) ) ;
#211 = DIRECTION ( 'NONE',  ( -4.275831445896958607E-31, -1.000000000000000000, -1.224646799147353207E-16 ) ) ;
#212 = PLANE ( 'NONE',  #196 ) ;
#213 = CARTESIAN_POINT ( 'NONE',  ( 9.447029668924834708E-15, -3.313571954914769461E-16, 2.705736835487429826 ) ) ;
#214 = CIRCLE ( 'NONE', #102, 1.200000000000003286 ) ;
#215 = AXIS2_PLACEMENT_3D ( 'NONE', #16, #183, #163 ) ;
#216 = CARTESIAN_POINT ( 'NONE',  ( -1.710332578358783705E-32, 5.999039130647431458E-34, -4.898587196589413537E-18 ) ) ;
#217 = PRODUCT_DEFINITION_SHAPE ( 'NONE', 'NONE',  #2 ) ;
#218 = CALENDAR_DATE ( 2021, 24, 11 ) ;
#219 = ORIENTED_EDGE ( 'NONE', *, *, #110, .F. ) ;
#220 = DATE_AND_TIME ( #105, #162 ) ;
#221 = CC_DESIGN_APPROVAL ( #202, ( #2 ) ) ;
#222 = EDGE_LOOP ( 'NONE', ( #127 ) ) ;
#223 = APPROVAL_ROLE ( '' ) ;
#224 = EDGE_LOOP ( 'NONE', ( #106 ) ) ;
#225 = PERSON_AND_ORGANIZATION ( #160, #1 ) ;
#226 = ORIENTED_EDGE ( 'NONE', *, *, #79, .F. ) ;
#227 = APPROVAL ( #149, 'UNSPECIFIED' ) ;
#228 = DIRECTION ( 'NONE',  ( 4.275831445896958607E-31, 1.000000000000000000, 1.224646799147353207E-16 ) ) ;
#229 = FACE_OUTER_BOUND ( 'NONE', #35, .T. ) ;
#230 = CLOSED_SHELL ( 'NONE', ( #171, #148, #99, #68, #143, #52 ) ) ;
#231 = DIRECTION ( 'NONE',  ( 4.275831445896959482E-31, 1.000000000000000000, 1.224646799147353207E-16 ) ) ;
#232 = CARTESIAN_POINT ( 'NONE',  ( 1.326762908760390423E-13, -4.653657836759941941E-15, 38.00000000000000000 ) ) ;
#233 = FACE_OUTER_BOUND ( 'NONE', #186, .T. ) ;
#234 = CC_DESIGN_SECURITY_CLASSIFICATION ( #87, ( #97 ) ) ;
#235 = CC_DESIGN_PERSON_AND_ORGANIZATION_ASSIGNMENT ( #128, #41, ( #97 ) ) ;
#236 = AXIS2_PLACEMENT_3D ( 'NONE', #47, #29, #153 ) ;
#237 = APPROVAL ( #205, 'UNSPECIFIED' ) ;
#238 = DIRECTION ( 'NONE',  ( -3.491481338843133355E-15, 1.224646799147353207E-16, -1.000000000000000000 ) ) ;
#239 = CONICAL_SURFACE ( 'NONE', #67, 0.02500000000000000139, 0.2617993877991499629 ) ;
#240 = COORDINATED_UNIVERSAL_TIME_OFFSET ( 1, 0, .AHEAD. ) ;
#241 = PERSON_AND_ORGANIZATION_ROLE ( 'design_owner' ) ;
#242 = ORIENTED_EDGE ( 'NONE', *, *, #79, .T. ) ;
#243 = DATE_TIME_ROLE ( 'creation_date' ) ;
ENDSEC;
END-ISO-10303-21;
