ISO-10303-21;
HEADER;
FILE_DESCRIPTION (( 'STEP AP203' ),
    '1' );
FILE_NAME ('976368.step',
    '2021-11-24T07:10:04',
    ( '' ),
    ( '' ),
    'SwSTEP 2.0',
    'SolidWorks 2019',
    '' );
FILE_SCHEMA (( 'CONFIG_CONTROL_DESIGN' ));
ENDSEC;

DATA;
#1 = VERTEX_POINT ( 'NONE', #223 ) ;
#2 = VERTEX_POINT ( 'NONE', #5 ) ;
#3 = APPROVAL_PERSON_ORGANIZATION ( #210, #72, #31 ) ;
#4 = PERSON_AND_ORGANIZATION ( #146, #137 ) ;
#5 = CARTESIAN_POINT ( 'NONE',  ( 4.082010573974555110E-15, 0.7499999999999997780, 1.169134295108988697 ) ) ;
#6 = APPLICATION_PROTOCOL_DEFINITION ( 'international standard', 'config_control_design', 1994, #133 ) ;
#7 = AXIS2_PLACEMENT_3D ( 'NONE', #37, #185, #203 ) ;
#8 = EDGE_LOOP ( 'NONE', ( #9 ) ) ;
#9 = ORIENTED_EDGE ( 'NONE', *, *, #166, .T. ) ;
#10 = PERSON_AND_ORGANIZATION ( #146, #137 ) ;
#11 = PERSON_AND_ORGANIZATION ( #146, #137 ) ;
#12 = CARTESIAN_POINT ( 'NONE',  ( 8.030407079339206717E-15, -2.816687638038912056E-16, 2.299999999999999822 ) ) ;
#13 = CC_DESIGN_PERSON_AND_ORGANIZATION_ASSIGNMENT ( #10, #62, ( #122 ) ) ;
#14 = CARTESIAN_POINT ( 'NONE',  ( 0.0000000000000000000, 0.0000000000000000000, 0.0000000000000000000 ) ) ;
#15 = LOCAL_TIME ( 8, 10, 4.000000000000000000, #225 ) ;
#16 = COORDINATED_UNIVERSAL_TIME_OFFSET ( 1, 0, .AHEAD. ) ;
#17 = DIRECTION ( 'NONE',  ( 0.0000000000000000000, 1.000000000000000000, 0.0000000000000000000 ) ) ;
#18 = ADVANCED_FACE ( 'NONE', ( #132, #214 ), #101, .F. ) ;
#19 = CYLINDRICAL_SURFACE ( 'NONE', #198, 0.7500000000000004441 ) ;
#20 = CARTESIAN_POINT ( 'NONE',  ( 4.082010573974555110E-15, 0.7499999999999997780, 1.169134295108988697 ) ) ;
#21 = CYLINDRICAL_SURFACE ( 'NONE', #231, 1.500000000000000000 ) ;
#22 = CIRCLE ( 'NONE', #216, 1.499999999999996669 ) ;
#23 = DATE_AND_TIME ( #153, #15 ) ;
#24 = CONICAL_SURFACE ( 'NONE', #217, 0.07499999999999999722, 0.5235987755983001479 ) ;
#25 =( NAMED_UNIT ( * ) SI_UNIT ( $, .STERADIAN. ) SOLID_ANGLE_UNIT ( ) );
#26 = CIRCLE ( 'NONE', #212, 0.7500000000000009992 ) ;
#27 = ORIENTED_EDGE ( 'NONE', *, *, #189, .T. ) ;
#28 = EDGE_LOOP ( 'NONE', ( #180 ) ) ;
#29 = DATE_AND_TIME ( #129, #237 ) ;
#30 = DIRECTION ( 'NONE',  ( 0.0000000000000000000, 1.000000000000000000, 0.0000000000000000000 ) ) ;
#31 = APPROVAL_ROLE ( '' ) ;
#32 = DIRECTION ( 'NONE',  ( 3.491481338843133355E-15, -1.224646799147353207E-16, 1.000000000000000000 ) ) ;
#33 = PERSON_AND_ORGANIZATION ( #146, #137 ) ;
#34 = DIRECTION ( 'NONE',  ( 4.275831445896959482E-31, 1.000000000000000000, 1.224646799147353207E-16 ) ) ;
#35 = SECURITY_CLASSIFICATION ( '', '', #235 ) ;
#36 = FACE_OUTER_BOUND ( 'NONE', #55, .T. ) ;
#37 = CARTESIAN_POINT ( 'NONE',  ( 1.326762908760390423E-13, 8.998558695971103225E-33, 38.00000000000000000 ) ) ;
#38 = COORDINATED_UNIVERSAL_TIME_OFFSET ( 1, 0, .AHEAD. ) ;
#39 = LOCAL_TIME ( 8, 10, 4.000000000000000000, #38 ) ;
#40 = DATE_TIME_ROLE ( 'creation_date' ) ;
#41 = DATE_AND_TIME ( #54, #39 ) ;
#42 = PRODUCT_DEFINITION_SHAPE ( 'NONE', 'NONE',  #136 ) ;
#43 = EDGE_LOOP ( 'NONE', ( #192 ) ) ;
#44 = APPROVAL_PERSON_ORGANIZATION ( #103, #88, #124 ) ;
#45 = AXIS2_PLACEMENT_3D ( 'NONE', #78, #80, #48 ) ;
#46 = DIRECTION ( 'NONE',  ( -4.275831445896958607E-31, -1.000000000000000000, -1.224646799147353207E-16 ) ) ;
#47 = DIRECTION ( 'NONE',  ( -3.491481338843133355E-15, 1.224646799147353207E-16, -1.000000000000000000 ) ) ;
#48 = DIRECTION ( 'NONE',  ( 4.275831445896958607E-31, 1.000000000000000000, 1.224646799147352961E-16 ) ) ;
#49 = DIRECTION ( 'NONE',  ( -3.491481338843133355E-15, 1.224646799147353207E-16, -1.000000000000000000 ) ) ;
#50 = CARTESIAN_POINT ( 'NONE',  ( 4.082010573974555899E-15, 5.624099184981963977E-33, 1.169134295108988919 ) ) ;
#51 = AXIS2_PLACEMENT_3D ( 'NONE', #115, #138, #236 ) ;
#52 = CARTESIAN_POINT ( 'NONE',  ( 1.068957861474239405E-32, 0.07499999999999999722, 3.061616997868381631E-18 ) ) ;
#53 = EDGE_CURVE ( 'NONE', #1, #1, #22, .T. ) ;
#54 = CALENDAR_DATE ( 2021, 24, 11 ) ;
#55 = EDGE_LOOP ( 'NONE', ( #57 ) ) ;
#56 = CC_DESIGN_SECURITY_CLASSIFICATION ( #35, ( #122 ) ) ;
#57 = ORIENTED_EDGE ( 'NONE', *, *, #166, .F. ) ;
#58 = MANIFOLD_SOLID_BREP ( 'Corps-Déplacer/Copier1[2]', #207 ) ;
#59 = PLANE ( 'NONE',  #76 ) ;
#60 = APPROVAL_PERSON_ORGANIZATION ( #188, #118, #150 ) ;
#61 = DIRECTION ( 'NONE',  ( -3.491481338843133355E-15, 1.224646799147353207E-16, -1.000000000000000000 ) ) ;
#62 = PERSON_AND_ORGANIZATION_ROLE ( 'creator' ) ;
#63 = CARTESIAN_POINT ( 'NONE',  ( -1.068957861474239679E-32, 3.749399456654644447E-34, -3.061616997868383172E-18 ) ) ;
#64 = DIRECTION ( 'NONE',  ( 0.0000000000000000000, 1.000000000000000000, 0.0000000000000000000 ) ) ;
#65 = CARTESIAN_POINT ( 'NONE',  ( 1.326762908760390423E-13, -4.653657836759941941E-15, 38.00000000000000000 ) ) ;
#66 = PLANE ( 'NONE',  #209 ) ;
#67 = AXIS2_PLACEMENT_3D ( 'NONE', #95, #98, #77 ) ;
#68 = ADVANCED_FACE ( 'NONE', ( #182 ), #139, .F. ) ;
#69 = PERSON_AND_ORGANIZATION_ROLE ( 'creator' ) ;
#70 = CARTESIAN_POINT ( 'NONE',  ( 0.0000000000000000000, 0.0000000000000000000, 0.0000000000000000000 ) ) ;
#71 = ORIENTED_EDGE ( 'NONE', *, *, #53, .F. ) ;
#72 = APPROVAL ( #200, 'UNSPECIFIED' ) ;
#73 = CIRCLE ( 'NONE', #100, 0.7499999999999998890 ) ;
#74 = MANIFOLD_SOLID_BREP ( 'Corps-Déplacer/Copier1[1]', #193 ) ;
#75 = DIRECTION ( 'NONE',  ( -3.491481338843133355E-15, 1.224646799147353207E-16, -1.000000000000000000 ) ) ;
#76 = AXIS2_PLACEMENT_3D ( 'NONE', #63, #134, #205 ) ;
#77 = DIRECTION ( 'NONE',  ( 0.0000000000000000000, 1.000000000000000000, 0.0000000000000000000 ) ) ;
#78 = CARTESIAN_POINT ( 'NONE',  ( -2.137915722948479358E-32, 7.498798913309288894E-34, -6.123233995736766344E-18 ) ) ;
#79 = DESIGN_CONTEXT ( 'detailed design', #133, 'design' ) ;
#80 = DIRECTION ( 'NONE',  ( -3.491481338843133355E-15, 1.224646799147353207E-16, -1.000000000000000000 ) ) ;
#81 = VERTEX_POINT ( 'NONE', #169 ) ;
#82 = ADVANCED_FACE ( 'NONE', ( #97, #112 ), #21, .T. ) ;
#83 = CARTESIAN_POINT ( 'NONE',  ( -2.137915722948479358E-32, 7.498798913309288894E-34, -6.123233995736766344E-18 ) ) ;
#84 = AXIS2_PLACEMENT_3D ( 'NONE', #70, #173, #177 ) ;
#85 = PERSON_AND_ORGANIZATION ( #146, #137 ) ;
#86 = VERTEX_POINT ( 'NONE', #172 ) ;
#87 = APPROVAL_DATE_TIME ( #23, #118 ) ;
#88 = APPROVAL ( #176, 'UNSPECIFIED' ) ;
#89 = CC_DESIGN_APPROVAL ( #88, ( #122 ) ) ;
#90 = ADVANCED_BREP_SHAPE_REPRESENTATION ( '976368', ( #74, #58, #84 ), #224 ) ;
#91 = EDGE_LOOP ( 'NONE', ( #197 ) ) ;
#92 = EDGE_CURVE ( 'NONE', #142, #142, #243, .T. ) ;
#93 = AXIS2_PLACEMENT_3D ( 'NONE', #202, #162, #46 ) ;
#94 = DIRECTION ( 'NONE',  ( -3.491481338843133355E-15, 1.224646799147353207E-16, -1.000000000000000000 ) ) ;
#95 = CARTESIAN_POINT ( 'NONE',  ( 1.316288464743861212E-13, -4.616918432785521081E-15, 37.69999999999999574 ) ) ;
#96 = CONICAL_SURFACE ( 'NONE', #125, 1.200000000000003286, 0.7853981633974453924 ) ;
#97 = FACE_OUTER_BOUND ( 'NONE', #111, .T. ) ;
#98 = DIRECTION ( 'NONE',  ( -3.491481338843133355E-15, 1.224646799147353207E-16, -1.000000000000000000 ) ) ;
#99 = FACE_OUTER_BOUND ( 'NONE', #155, .T. ) ;
#100 = AXIS2_PLACEMENT_3D ( 'NONE', #219, #47, #242 ) ;
#101 = TOROIDAL_SURFACE ( 'NONE', #51, 8.750000000000000000, 8.000000000000000000 ) ;
#102 = APPROVAL_DATE_TIME ( #206, #88 ) ;
#103 = PERSON_AND_ORGANIZATION ( #146, #137 ) ;
#104 = CARTESIAN_POINT ( 'NONE',  ( 1.316288464743861212E-13, 1.499999999999998668, 37.69999999999999574 ) ) ;
#105 = CC_DESIGN_DATE_AND_TIME_ASSIGNMENT ( #41, #40, ( #136 ) ) ;
#106 = ORIENTED_EDGE ( 'NONE', *, *, #189, .F. ) ;
#107 = ORIENTED_EDGE ( 'NONE', *, *, #109, .T. ) ;
#108 = AXIS2_PLACEMENT_3D ( 'NONE', #239, #61, #30 ) ;
#109 = EDGE_CURVE ( 'NONE', #81, #81, #163, .T. ) ;
#110 = ORIENTED_EDGE ( 'NONE', *, *, #109, .F. ) ;
#111 = EDGE_LOOP ( 'NONE', ( #71 ) ) ;
#112 = FACE_OUTER_BOUND ( 'NONE', #8, .T. ) ;
#113 = DIRECTION ( 'NONE',  ( -3.491481338843133355E-15, 1.224646799147353207E-16, -1.000000000000000000 ) ) ;
#114 = PERSON_AND_ORGANIZATION_ROLE ( 'design_supplier' ) ;
#115 = CARTESIAN_POINT ( 'NONE',  ( 8.030407079339206717E-15, 0.0000000000000000000, 2.299999999999999822 ) ) ;
#116 = CC_DESIGN_APPROVAL ( #118, ( #136 ) ) ;
#117 = FACE_OUTER_BOUND ( 'NONE', #128, .T. ) ;
#118 = APPROVAL ( #123, 'UNSPECIFIED' ) ;
#119 = DIRECTION ( 'NONE',  ( 0.0000000000000000000, 1.000000000000000000, 0.0000000000000000000 ) ) ;
#120 = APPLICATION_CONTEXT ( 'configuration controlled 3d designs of mechanical parts and assemblies' ) ;
#121 = CALENDAR_DATE ( 2021, 24, 11 ) ;
#122 = PRODUCT_DEFINITION_FORMATION_WITH_SPECIFIED_SOURCE ( 'ANY', '', #147, .NOT_KNOWN. ) ;
#123 = APPROVAL_STATUS ( 'not_yet_approved' ) ;
#124 = APPROVAL_ROLE ( '' ) ;
#125 = AXIS2_PLACEMENT_3D ( 'NONE', #65, #49, #119 ) ;
#126 = EDGE_CURVE ( 'NONE', #86, #86, #26, .T. ) ;
#127 = DATE_TIME_ROLE ( 'classification_date' ) ;
#128 = EDGE_LOOP ( 'NONE', ( #110 ) ) ;
#129 = CALENDAR_DATE ( 2021, 24, 11 ) ;
#130 = CC_DESIGN_APPROVAL ( #72, ( #35 ) ) ;
#131 = EDGE_LOOP ( 'NONE', ( #27 ) ) ;
#132 = FACE_OUTER_BOUND ( 'NONE', #91, .T. ) ;
#133 = APPLICATION_CONTEXT ( 'configuration controlled 3d designs of mechanical parts and assemblies' ) ;
#134 = DIRECTION ( 'NONE',  ( 3.491481338843133355E-15, -1.224646799147353207E-16, 1.000000000000000000 ) ) ;
#135 = PERSON_AND_ORGANIZATION_ROLE ( 'classification_officer' ) ;
#136 = PRODUCT_DEFINITION ( 'UNKNOWN', '', #122, #79 ) ;
#137 = ORGANIZATION ( 'UNSPECIFIED', 'UNSPECIFIED', '' ) ;
#138 = DIRECTION ( 'NONE',  ( -3.491481338843133355E-15, 1.224646799147353207E-16, -1.000000000000000000 ) ) ;
#139 = PLANE ( 'NONE',  #93 ) ;
#140 = ADVANCED_FACE ( 'NONE', ( #181, #220 ), #19, .T. ) ;
#141 = DIRECTION ( 'NONE',  ( -3.491481338843133355E-15, 1.224646799147353207E-16, -1.000000000000000000 ) ) ;
#142 = VERTEX_POINT ( 'NONE', #20 ) ;
#143 = AXIS2_PLACEMENT_3D ( 'NONE', #234, #94, #17 ) ;
#144 = CARTESIAN_POINT ( 'NONE',  ( 1.983837810246228641E-14, -6.958366345301815590E-16, 5.681937314617162116 ) ) ;
#145 = DIRECTION ( 'NONE',  ( -4.275831445896958607E-31, -1.000000000000000000, -1.224646799147353207E-16 ) ) ;
#146 = PERSON ( 'UNSPECIFIED', 'UNSPECIFIED', 'UNSPECIFIED', ('UNSPECIFIED'), ('UNSPECIFIED'), ('UNSPECIFIED') ) ;
#147 = PRODUCT ( '976368', '976368', '', ( #191 ) ) ;
#148 =( LENGTH_UNIT ( ) NAMED_UNIT ( * ) SI_UNIT ( .MILLI., .METRE. ) );
#149 = CIRCLE ( 'NONE', #67, 1.500000000000003331 ) ;
#150 = APPROVAL_ROLE ( '' ) ;
#151 =( NAMED_UNIT ( * ) PLANE_ANGLE_UNIT ( ) SI_UNIT ( $, .RADIAN. ) );
#152 = EDGE_CURVE ( 'NONE', #174, #174, #154, .T. ) ;
#153 = CALENDAR_DATE ( 2021, 24, 11 ) ;
#154 = CIRCLE ( 'NONE', #45, 0.07499999999999999722 ) ;
#155 = EDGE_LOOP ( 'NONE', ( #106 ) ) ;
#156 = ORIENTED_EDGE ( 'NONE', *, *, #126, .T. ) ;
#157 = EDGE_LOOP ( 'NONE', ( #230 ) ) ;
#158 = EDGE_LOOP ( 'NONE', ( #194 ) ) ;
#159 = DATE_AND_TIME ( #164, #190 ) ;
#160 = EDGE_LOOP ( 'NONE', ( #107 ) ) ;
#161 = ADVANCED_FACE ( 'NONE', ( #183, #167 ), #24, .T. ) ;
#162 = DIRECTION ( 'NONE',  ( 3.491481338843133355E-15, -1.224646799147353207E-16, 1.000000000000000000 ) ) ;
#163 = CIRCLE ( 'NONE', #143, 1.200000000000003286 ) ;
#164 = CALENDAR_DATE ( 2021, 24, 11 ) ;
#165 = FACE_OUTER_BOUND ( 'NONE', #157, .T. ) ;
#166 = EDGE_CURVE ( 'NONE', #208, #208, #149, .T. ) ;
#167 = FACE_BOUND ( 'NONE', #43, .T. ) ;
#168 = DIRECTION ( 'NONE',  ( 0.0000000000000000000, 1.000000000000000000, 0.0000000000000000000 ) ) ;
#169 = CARTESIAN_POINT ( 'NONE',  ( 1.326762908760390423E-13, 1.199999999999998845, 38.00000000000000000 ) ) ;
#170 = DIRECTION ( 'NONE',  ( 3.491481338843133355E-15, -1.224646799147353207E-16, 1.000000000000000000 ) ) ;
#171 = CC_DESIGN_PERSON_AND_ORGANIZATION_ASSIGNMENT ( #33, #135, ( #35 ) ) ;
#172 = CARTESIAN_POINT ( 'NONE',  ( 8.030407079339206717E-15, 0.7500000000000006661, 2.299999999999999822 ) ) ;
#173 = DIRECTION ( 'NONE',  ( 0.0000000000000000000, 0.0000000000000000000, 1.000000000000000000 ) ) ;
#174 = VERTEX_POINT ( 'NONE', #52 ) ;
#175 = CC_DESIGN_PERSON_AND_ORGANIZATION_ASSIGNMENT ( #85, #226, ( #147 ) ) ;
#176 = APPROVAL_STATUS ( 'not_yet_approved' ) ;
#177 = DIRECTION ( 'NONE',  ( 1.000000000000000000, 0.0000000000000000000, 0.0000000000000000000 ) ) ;
#178 = LOCAL_TIME ( 8, 10, 4.000000000000000000, #227 ) ;
#179 = EDGE_LOOP ( 'NONE', ( #156 ) ) ;
#180 = ORIENTED_EDGE ( 'NONE', *, *, #92, .F. ) ;
#181 = FACE_OUTER_BOUND ( 'NONE', #179, .T. ) ;
#182 = FACE_OUTER_BOUND ( 'NONE', #158, .T. ) ;
#183 = FACE_OUTER_BOUND ( 'NONE', #131, .T. ) ;
#184 = FACE_BOUND ( 'NONE', #160, .T. ) ;
#185 = DIRECTION ( 'NONE',  ( -3.491481338843133355E-15, 1.224646799147353207E-16, -1.000000000000000000 ) ) ;
#186 = ADVANCED_FACE ( 'NONE', ( #165 ), #59, .F. ) ;
#187 = APPLICATION_PROTOCOL_DEFINITION ( 'international standard', 'config_control_design', 1994, #120 ) ;
#188 = PERSON_AND_ORGANIZATION ( #146, #137 ) ;
#189 = EDGE_CURVE ( 'NONE', #2, #2, #73, .T. ) ;
#190 = LOCAL_TIME ( 8, 10, 4.000000000000000000, #196 ) ;
#191 = MECHANICAL_CONTEXT ( 'NONE', #120, 'mechanical' ) ;
#192 = ORIENTED_EDGE ( 'NONE', *, *, #152, .F. ) ;
#193 = CLOSED_SHELL ( 'NONE', ( #68, #140, #18, #82, #229, #213 ) ) ;
#194 = ORIENTED_EDGE ( 'NONE', *, *, #92, .T. ) ;
#195 = CC_DESIGN_PERSON_AND_ORGANIZATION_ASSIGNMENT ( #4, #69, ( #136 ) ) ;
#196 = COORDINATED_UNIVERSAL_TIME_OFFSET ( 1, 0, .AHEAD. ) ;
#197 = ORIENTED_EDGE ( 'NONE', *, *, #53, .T. ) ;
#198 = AXIS2_PLACEMENT_3D ( 'NONE', #14, #113, #221 ) ;
#199 = CARTESIAN_POINT ( 'NONE',  ( 0.0000000000000000000, 0.0000000000000000000, 0.0000000000000000000 ) ) ;
#200 = APPROVAL_STATUS ( 'not_yet_approved' ) ;
#201 = DIRECTION ( 'NONE',  ( -4.275831445896959482E-31, -1.000000000000000000, -1.224646799147352961E-16 ) ) ;
#202 = CARTESIAN_POINT ( 'NONE',  ( 4.082010573974555899E-15, 5.624099184981963977E-33, 1.169134295108988919 ) ) ;
#203 = DIRECTION ( 'NONE',  ( 4.275831445896958607E-31, 1.000000000000000000, 1.224646799147353207E-16 ) ) ;
#204 = CC_DESIGN_DATE_AND_TIME_ASSIGNMENT ( #29, #127, ( #35 ) ) ;
#205 = DIRECTION ( 'NONE',  ( -4.275831445896958607E-31, -1.000000000000000000, -1.224646799147353207E-16 ) ) ;
#206 = DATE_AND_TIME ( #121, #178 ) ;
#207 = CLOSED_SHELL ( 'NONE', ( #186, #161, #241 ) ) ;
#208 = VERTEX_POINT ( 'NONE', #104 ) ;
#209 = AXIS2_PLACEMENT_3D ( 'NONE', #50, #170, #145 ) ;
#210 = PERSON_AND_ORGANIZATION ( #146, #137 ) ;
#211 = CC_DESIGN_PERSON_AND_ORGANIZATION_ASSIGNMENT ( #11, #114, ( #122 ) ) ;
#212 = AXIS2_PLACEMENT_3D ( 'NONE', #12, #218, #64 ) ;
#213 = ADVANCED_FACE ( 'NONE', ( #117 ), #240, .F. ) ;
#214 = FACE_OUTER_BOUND ( 'NONE', #232, .T. ) ;
#215 = PRODUCT_RELATED_PRODUCT_CATEGORY ( 'detail', '', ( #147 ) ) ;
#216 = AXIS2_PLACEMENT_3D ( 'NONE', #144, #75, #168 ) ;
#217 = AXIS2_PLACEMENT_3D ( 'NONE', #83, #32, #201 ) ;
#218 = DIRECTION ( 'NONE',  ( -3.491481338843133355E-15, 1.224646799147353207E-16, -1.000000000000000000 ) ) ;
#219 = CARTESIAN_POINT ( 'NONE',  ( 4.082010573974555110E-15, -1.431776572278620132E-16, 1.169134295108988697 ) ) ;
#220 = FACE_OUTER_BOUND ( 'NONE', #28, .T. ) ;
#221 = DIRECTION ( 'NONE',  ( 4.275831445896958607E-31, 1.000000000000000000, 1.224646799147353207E-16 ) ) ;
#222 = UNCERTAINTY_MEASURE_WITH_UNIT (LENGTH_MEASURE( 1.000000000000000082E-05 ), #148, 'distance_accuracy_value', 'NONE');
#223 = CARTESIAN_POINT ( 'NONE',  ( 1.983837810246228641E-14, 1.499999999999996225, 5.681937314617162116 ) ) ;
#224 =( GEOMETRIC_REPRESENTATION_CONTEXT ( 3 ) GLOBAL_UNCERTAINTY_ASSIGNED_CONTEXT ( ( #222 ) ) GLOBAL_UNIT_ASSIGNED_CONTEXT ( ( #148, #151, #25 ) ) REPRESENTATION_CONTEXT ( 'NONE', 'WORKASPACE' ) );
#225 = COORDINATED_UNIVERSAL_TIME_OFFSET ( 1, 0, .AHEAD. ) ;
#226 = PERSON_AND_ORGANIZATION_ROLE ( 'design_owner' ) ;
#227 = COORDINATED_UNIVERSAL_TIME_OFFSET ( 1, 0, .AHEAD. ) ;
#228 = ORIENTED_EDGE ( 'NONE', *, *, #126, .F. ) ;
#229 = ADVANCED_FACE ( 'NONE', ( #36, #184 ), #96, .T. ) ;
#230 = ORIENTED_EDGE ( 'NONE', *, *, #152, .T. ) ;
#231 = AXIS2_PLACEMENT_3D ( 'NONE', #199, #141, #34 ) ;
#232 = EDGE_LOOP ( 'NONE', ( #228 ) ) ;
#233 = APPROVAL_DATE_TIME ( #159, #72 ) ;
#234 = CARTESIAN_POINT ( 'NONE',  ( 1.326762908760390423E-13, -4.653657836759941941E-15, 38.00000000000000000 ) ) ;
#235 = SECURITY_CLASSIFICATION_LEVEL ( 'unclassified' ) ;
#236 = DIRECTION ( 'NONE',  ( 4.355100981429076768E-31, 1.000000000000000000, 1.224646799147353207E-16 ) ) ;
#237 = LOCAL_TIME ( 8, 10, 4.000000000000000000, #16 ) ;
#238 = SHAPE_DEFINITION_REPRESENTATION ( #42, #90 ) ;
#239 = CARTESIAN_POINT ( 'NONE',  ( 4.082010573974555110E-15, -1.431776572278620132E-16, 1.169134295108988697 ) ) ;
#240 = PLANE ( 'NONE',  #7 ) ;
#241 = ADVANCED_FACE ( 'NONE', ( #99 ), #66, .T. ) ;
#242 = DIRECTION ( 'NONE',  ( 0.0000000000000000000, 1.000000000000000000, 0.0000000000000000000 ) ) ;
#243 = CIRCLE ( 'NONE', #108, 0.7499999999999998890 ) ;
ENDSEC;
END-ISO-10303-21;
