ISO-10303-21;
HEADER;
FILE_DESCRIPTION (( 'STEP AP203' ),
    '1' );
FILE_NAME ('976367.step',
    '2021-11-24T07:10:03',
    ( '' ),
    ( '' ),
    'SwSTEP 2.0',
    'SolidWorks 2019',
    '' );
FILE_SCHEMA (( 'CONFIG_CONTROL_DESIGN' ));
ENDSEC;

DATA;
#1 = ADVANCED_FACE ( 'NONE', ( #195, #34 ), #102, .T. ) ;
#2 = EDGE_LOOP ( 'NONE', ( #164 ) ) ;
#3 = CARTESIAN_POINT ( 'NONE',  ( 8.030407079339206717E-15, 0.0000000000000000000, 2.299999999999999822 ) ) ;
#4 = FACE_OUTER_BOUND ( 'NONE', #159, .T. ) ;
#5 = AXIS2_PLACEMENT_3D ( 'NONE', #3, #226, #209 ) ;
#6 = DIRECTION ( 'NONE',  ( 4.275831445896958607E-31, 1.000000000000000000, 1.224646799147353207E-16 ) ) ;
#7 = DIRECTION ( 'NONE',  ( 0.0000000000000000000, 1.000000000000000000, 0.0000000000000000000 ) ) ;
#8 = AXIS2_PLACEMENT_3D ( 'NONE', #188, #98, #62 ) ;
#9 = DIRECTION ( 'NONE',  ( 0.0000000000000000000, 0.0000000000000000000, 1.000000000000000000 ) ) ;
#10 = ADVANCED_FACE ( 'NONE', ( #165, #96 ), #100, .T. ) ;
#11 = PERSON_AND_ORGANIZATION ( #227, #23 ) ;
#12 = DATE_AND_TIME ( #177, #243 ) ;
#13 = EDGE_LOOP ( 'NONE', ( #198 ) ) ;
#14 = CIRCLE ( 'NONE', #187, 1.500000000000003331 ) ;
#15 = EDGE_LOOP ( 'NONE', ( #222 ) ) ;
#16 = DATE_TIME_ROLE ( 'classification_date' ) ;
#17 = ORIENTED_EDGE ( 'NONE', *, *, #216, .F. ) ;
#18 = COORDINATED_UNIVERSAL_TIME_OFFSET ( 1, 0, .AHEAD. ) ;
#19 = ORIENTED_EDGE ( 'NONE', *, *, #197, .F. ) ;
#20 = DIRECTION ( 'NONE',  ( -3.491481338843133355E-15, 1.224646799147353207E-16, -1.000000000000000000 ) ) ;
#21 = CARTESIAN_POINT ( 'NONE',  ( -8.551662891793918527E-33, 2.999519565323715729E-34, -2.449293598294706769E-18 ) ) ;
#22 = CARTESIAN_POINT ( 'NONE',  ( 1.316288464743861212E-13, -4.616918432785521081E-15, 37.69999999999999574 ) ) ;
#23 = ORGANIZATION ( 'UNSPECIFIED', 'UNSPECIFIED', '' ) ;
#24 = FACE_OUTER_BOUND ( 'NONE', #90, .T. ) ;
#25 = DIRECTION ( 'NONE',  ( -3.491481338843133355E-15, 1.224646799147353207E-16, -1.000000000000000000 ) ) ;
#26 = CALENDAR_DATE ( 2021, 24, 11 ) ;
#27 = ADVANCED_FACE ( 'NONE', ( #185, #149 ), #110, .T. ) ;
#28 = CALENDAR_DATE ( 2021, 24, 11 ) ;
#29 = PRODUCT ( '976367', '976367', '', ( #104 ) ) ;
#30 = PERSON_AND_ORGANIZATION ( #227, #23 ) ;
#31 = AXIS2_PLACEMENT_3D ( 'NONE', #148, #186, #115 ) ;
#32 =( NAMED_UNIT ( * ) SI_UNIT ( $, .STERADIAN. ) SOLID_ANGLE_UNIT ( ) );
#33 = CC_DESIGN_PERSON_AND_ORGANIZATION_ASSIGNMENT ( #70, #53, ( #134 ) ) ;
#34 = FACE_BOUND ( 'NONE', #181, .T. ) ;
#35 = ADVANCED_FACE ( 'NONE', ( #116 ), #132, .F. ) ;
#36 = EDGE_LOOP ( 'NONE', ( #94 ) ) ;
#37 = CIRCLE ( 'NONE', #41, 0.7500000000000009992 ) ;
#38 = ORIENTED_EDGE ( 'NONE', *, *, #79, .T. ) ;
#39 = APPROVAL ( #106, 'UNSPECIFIED' ) ;
#40 = CARTESIAN_POINT ( 'NONE',  ( 4.233196150788427960E-15, -1.484805334214865441E-16, 1.212435565298210838 ) ) ;
#41 = AXIS2_PLACEMENT_3D ( 'NONE', #202, #225, #114 ) ;
#42 = CC_DESIGN_PERSON_AND_ORGANIZATION_ASSIGNMENT ( #125, #72, ( #63 ) ) ;
#43 = DIRECTION ( 'NONE',  ( 3.491481338843133355E-15, -1.224646799147353207E-16, 1.000000000000000000 ) ) ;
#44 = FACE_OUTER_BOUND ( 'NONE', #88, .T. ) ;
#45 = APPLICATION_CONTEXT ( 'configuration controlled 3d designs of mechanical parts and assemblies' ) ;
#46 = DIRECTION ( 'NONE',  ( 3.491481338843133355E-15, -1.224646799147353207E-16, 1.000000000000000000 ) ) ;
#47 = DIRECTION ( 'NONE',  ( 3.491481338843133355E-15, -1.224646799147353207E-16, 1.000000000000000000 ) ) ;
#48 = COORDINATED_UNIVERSAL_TIME_OFFSET ( 1, 0, .AHEAD. ) ;
#49 = APPLICATION_PROTOCOL_DEFINITION ( 'international standard', 'config_control_design', 1994, #183 ) ;
#50 = AXIS2_PLACEMENT_3D ( 'NONE', #78, #25, #97 ) ;
#51 = VERTEX_POINT ( 'NONE', #155 ) ;
#52 = CARTESIAN_POINT ( 'NONE',  ( 1.326762908760390423E-13, 1.199999999999998845, 38.00000000000000000 ) ) ;
#53 = PERSON_AND_ORGANIZATION_ROLE ( 'classification_officer' ) ;
#54 = ORIENTED_EDGE ( 'NONE', *, *, #150, .F. ) ;
#55 = LOCAL_TIME ( 8, 10, 3.000000000000000000, #48 ) ;
#56 = ORIENTED_EDGE ( 'NONE', *, *, #150, .T. ) ;
#57 = PERSON_AND_ORGANIZATION_ROLE ( 'design_supplier' ) ;
#58 = DIRECTION ( 'NONE',  ( 0.0000000000000000000, 1.000000000000000000, 0.0000000000000000000 ) ) ;
#59 = CC_DESIGN_APPROVAL ( #39, ( #127 ) ) ;
#60 = FACE_OUTER_BOUND ( 'NONE', #241, .T. ) ;
#61 = DIRECTION ( 'NONE',  ( 3.491481338843133355E-15, -1.224646799147353207E-16, 1.000000000000000000 ) ) ;
#62 = DIRECTION ( 'NONE',  ( 0.0000000000000000000, 1.000000000000000000, 0.0000000000000000000 ) ) ;
#63 = PRODUCT_DEFINITION_FORMATION_WITH_SPECIFIED_SOURCE ( 'ANY', '', #29, .NOT_KNOWN. ) ;
#64 = APPROVAL_STATUS ( 'not_yet_approved' ) ;
#65 = DIRECTION ( 'NONE',  ( -3.491481338843133355E-15, 1.224646799147353207E-16, -1.000000000000000000 ) ) ;
#66 = CARTESIAN_POINT ( 'NONE',  ( 1.316288464743861212E-13, 1.499999999999998668, 37.69999999999999574 ) ) ;
#67 = CIRCLE ( 'NONE', #182, 1.499999999999996669 ) ;
#68 = CARTESIAN_POINT ( 'NONE',  ( 8.030407079339206717E-15, 0.7500000000000006661, 2.299999999999999822 ) ) ;
#69 = DIRECTION ( 'NONE',  ( 4.275831445896958607E-31, 1.000000000000000000, 1.224646799147353207E-16 ) ) ;
#70 = PERSON_AND_ORGANIZATION ( #227, #23 ) ;
#71 = EDGE_LOOP ( 'NONE', ( #200 ) ) ;
#72 = PERSON_AND_ORGANIZATION_ROLE ( 'creator' ) ;
#73 = ORIENTED_EDGE ( 'NONE', *, *, #216, .T. ) ;
#74 = DIRECTION ( 'NONE',  ( -3.491481338843133355E-15, 1.224646799147353207E-16, -1.000000000000000000 ) ) ;
#75 = CARTESIAN_POINT ( 'NONE',  ( 1.326762908760390423E-13, -4.653657836759941941E-15, 38.00000000000000000 ) ) ;
#76 = AXIS2_PLACEMENT_3D ( 'NONE', #184, #46, #95 ) ;
#77 = DIRECTION ( 'NONE',  ( 0.0000000000000000000, 1.000000000000000000, 0.0000000000000000000 ) ) ;
#78 = CARTESIAN_POINT ( 'NONE',  ( 0.0000000000000000000, 0.0000000000000000000, 0.0000000000000000000 ) ) ;
#79 = EDGE_CURVE ( 'NONE', #141, #141, #14, .T. ) ;
#80 = DIRECTION ( 'NONE',  ( -3.491481338843133355E-15, 1.224646799147353207E-16, -1.000000000000000000 ) ) ;
#81 = CC_DESIGN_APPROVAL ( #99, ( #134 ) ) ;
#82 = DIRECTION ( 'NONE',  ( -4.275831445896958607E-31, -1.000000000000000000, -1.224646799147353207E-16 ) ) ;
#83 = COORDINATED_UNIVERSAL_TIME_OFFSET ( 1, 0, .AHEAD. ) ;
#84 = ADVANCED_FACE ( 'NONE', ( #119, #44 ), #158, .F. ) ;
#85 = CC_DESIGN_APPROVAL ( #201, ( #63 ) ) ;
#86 = DATE_TIME_ROLE ( 'creation_date' ) ;
#87 = APPROVAL_STATUS ( 'not_yet_approved' ) ;
#88 = EDGE_LOOP ( 'NONE', ( #17 ) ) ;
#89 = LOCAL_TIME ( 8, 10, 3.000000000000000000, #18 ) ;
#90 = EDGE_LOOP ( 'NONE', ( #180 ) ) ;
#91 = EDGE_LOOP ( 'NONE', ( #38 ) ) ;
#92 = CALENDAR_DATE ( 2021, 24, 11 ) ;
#93 = APPROVAL_PERSON_ORGANIZATION ( #199, #99, #220 ) ;
#94 = ORIENTED_EDGE ( 'NONE', *, *, #236, .T. ) ;
#95 = DIRECTION ( 'NONE',  ( -4.275831445896958607E-31, -1.000000000000000000, -1.224646799147353207E-16 ) ) ;
#96 = FACE_OUTER_BOUND ( 'NONE', #240, .T. ) ;
#97 = DIRECTION ( 'NONE',  ( 4.275831445896959482E-31, 1.000000000000000000, 1.224646799147353207E-16 ) ) ;
#98 = DIRECTION ( 'NONE',  ( -3.491481338843133355E-15, 1.224646799147353207E-16, -1.000000000000000000 ) ) ;
#99 = APPROVAL ( #87, 'UNSPECIFIED' ) ;
#100 = CYLINDRICAL_SURFACE ( 'NONE', #239, 0.7500000000000004441 ) ;
#101 = VERTEX_POINT ( 'NONE', #52 ) ;
#102 = CONICAL_SURFACE ( 'NONE', #31, 1.200000000000003286, 0.7853981633974453924 ) ;
#103 = CARTESIAN_POINT ( 'NONE',  ( 4.233196150788427960E-15, 0.7499999999999997780, 1.212435565298210838 ) ) ;
#104 = MECHANICAL_CONTEXT ( 'NONE', #45, 'mechanical' ) ;
#105 = ADVANCED_FACE ( 'NONE', ( #60, #206 ), #152, .T. ) ;
#106 = APPROVAL_STATUS ( 'not_yet_approved' ) ;
#107 = AXIS2_PLACEMENT_3D ( 'NONE', #21, #47, #147 ) ;
#108 = COORDINATED_UNIVERSAL_TIME_OFFSET ( 1, 0, .AHEAD. ) ;
#109 = ORIENTED_EDGE ( 'NONE', *, *, #204, .F. ) ;
#110 = CONICAL_SURFACE ( 'NONE', #76, 0.05000000000000000278, 0.5235987755983000369 ) ;
#111 = APPROVAL_DATE_TIME ( #232, #201 ) ;
#112 = DESIGN_CONTEXT ( 'detailed design', #183, 'design' ) ;
#113 = ADVANCED_FACE ( 'NONE', ( #24 ), #167, .F. ) ;
#114 = DIRECTION ( 'NONE',  ( 0.0000000000000000000, 1.000000000000000000, 0.0000000000000000000 ) ) ;
#115 = DIRECTION ( 'NONE',  ( 0.0000000000000000000, 1.000000000000000000, 0.0000000000000000000 ) ) ;
#116 = FACE_OUTER_BOUND ( 'NONE', #71, .T. ) ;
#117 = PRODUCT_RELATED_PRODUCT_CATEGORY ( 'detail', '', ( #29 ) ) ;
#118 = DIRECTION ( 'NONE',  ( 4.275831445896958607E-31, 1.000000000000000000, 1.224646799147353207E-16 ) ) ;
#119 = FACE_OUTER_BOUND ( 'NONE', #2, .T. ) ;
#120 = VERTEX_POINT ( 'NONE', #122 ) ;
#121 = AXIS2_PLACEMENT_3D ( 'NONE', #40, #80, #231 ) ;
#122 = CARTESIAN_POINT ( 'NONE',  ( 4.275831445896955842E-33, 0.05000000000000000278, 1.224646799147352614E-18 ) ) ;
#123 = CC_DESIGN_SECURITY_CLASSIFICATION ( #134, ( #63 ) ) ;
#124 = ORIENTED_EDGE ( 'NONE', *, *, #210, .T. ) ;
#125 = PERSON_AND_ORGANIZATION ( #227, #23 ) ;
#126 = DIRECTION ( 'NONE',  ( -3.491481338843133355E-15, 1.224646799147353207E-16, -1.000000000000000000 ) ) ;
#127 = PRODUCT_DEFINITION ( 'UNKNOWN', '', #63, #112 ) ;
#128 = AXIS2_PLACEMENT_3D ( 'NONE', #215, #9, #235 ) ;
#129 = PLANE ( 'NONE',  #194 ) ;
#130 = DIRECTION ( 'NONE',  ( -3.491481338843133355E-15, 1.224646799147353207E-16, -1.000000000000000000 ) ) ;
#131 = PRODUCT_DEFINITION_SHAPE ( 'NONE', 'NONE',  #127 ) ;
#132 = PLANE ( 'NONE',  #143 ) ;
#133 = FACE_OUTER_BOUND ( 'NONE', #36, .T. ) ;
#134 = SECURITY_CLASSIFICATION ( '', '', #242 ) ;
#135 = APPROVAL_ROLE ( '' ) ;
#136 = CC_DESIGN_DATE_AND_TIME_ASSIGNMENT ( #12, #86, ( #127 ) ) ;
#137 = CARTESIAN_POINT ( 'NONE',  ( -1.710332578358783705E-32, 5.999039130647431458E-34, -4.898587196589413537E-18 ) ) ;
#138 = VERTEX_POINT ( 'NONE', #213 ) ;
#139 = AXIS2_PLACEMENT_3D ( 'NONE', #75, #126, #58 ) ;
#140 = PERSON_AND_ORGANIZATION ( #227, #23 ) ;
#141 = VERTEX_POINT ( 'NONE', #66 ) ;
#142 = MANIFOLD_SOLID_BREP ( 'Corps-Déplacer/Copier1[2]', #171 ) ;
#143 = AXIS2_PLACEMENT_3D ( 'NONE', #151, #20, #118 ) ;
#144 = PERSON_AND_ORGANIZATION ( #227, #23 ) ;
#145 = EDGE_LOOP ( 'NONE', ( #56 ) ) ;
#146 = EDGE_LOOP ( 'NONE', ( #73 ) ) ;
#147 = DIRECTION ( 'NONE',  ( -4.275831445896958607E-31, -1.000000000000000000, -1.224646799147353207E-16 ) ) ;
#148 = CARTESIAN_POINT ( 'NONE',  ( 1.326762908760390423E-13, -4.653657836759941941E-15, 38.00000000000000000 ) ) ;
#149 = FACE_BOUND ( 'NONE', #13, .T. ) ;
#150 = EDGE_CURVE ( 'NONE', #153, #153, #212, .T. ) ;
#151 = CARTESIAN_POINT ( 'NONE',  ( 1.326762908760390423E-13, 8.998558695971103225E-33, 38.00000000000000000 ) ) ;
#152 = CYLINDRICAL_SURFACE ( 'NONE', #50, 1.500000000000000000 ) ;
#153 = VERTEX_POINT ( 'NONE', #103 ) ;
#154 = LOCAL_TIME ( 8, 10, 3.000000000000000000, #83 ) ;
#155 = CARTESIAN_POINT ( 'NONE',  ( 1.983837810246228641E-14, 1.499999999999996225, 5.681937314617162116 ) ) ;
#156 = CC_DESIGN_PERSON_AND_ORGANIZATION_ASSIGNMENT ( #144, #57, ( #63 ) ) ;
#157 = PERSON_AND_ORGANIZATION ( #227, #23 ) ;
#158 = TOROIDAL_SURFACE ( 'NONE', #5, 8.750000000000000000, 8.000000000000000000 ) ;
#159 = EDGE_LOOP ( 'NONE', ( #54 ) ) ;
#160 = APPROVAL_DATE_TIME ( #196, #99 ) ;
#161 = SHAPE_DEFINITION_REPRESENTATION ( #131, #169 ) ;
#162 = CIRCLE ( 'NONE', #208, 0.05000000000000000278 ) ;
#163 = ADVANCED_FACE ( 'NONE', ( #133 ), #189, .F. ) ;
#164 = ORIENTED_EDGE ( 'NONE', *, *, #197, .T. ) ;
#165 = FACE_OUTER_BOUND ( 'NONE', #146, .T. ) ;
#166 = CIRCLE ( 'NONE', #139, 1.200000000000003286 ) ;
#167 = PLANE ( 'NONE',  #176 ) ;
#168 = CARTESIAN_POINT ( 'NONE',  ( 0.0000000000000000000, 0.0000000000000000000, 0.0000000000000000000 ) ) ;
#169 = ADVANCED_BREP_SHAPE_REPRESENTATION ( '976367', ( #174, #142, #128 ), #179 ) ;
#170 = DIRECTION ( 'NONE',  ( -3.491481338843133355E-15, 1.224646799147353207E-16, -1.000000000000000000 ) ) ;
#171 = CLOSED_SHELL ( 'NONE', ( #163, #27, #219 ) ) ;
#172 = PERSON_AND_ORGANIZATION_ROLE ( 'creator' ) ;
#173 =( NAMED_UNIT ( * ) PLANE_ANGLE_UNIT ( ) SI_UNIT ( $, .RADIAN. ) );
#174 = MANIFOLD_SOLID_BREP ( 'Corps-Déplacer/Copier1[1]', #203 ) ;
#175 = APPROVAL_DATE_TIME ( #233, #39 ) ;
#176 = AXIS2_PLACEMENT_3D ( 'NONE', #228, #61, #207 ) ;
#177 = CALENDAR_DATE ( 2021, 24, 11 ) ;
#178 = CC_DESIGN_PERSON_AND_ORGANIZATION_ASSIGNMENT ( #140, #211, ( #29 ) ) ;
#179 =( GEOMETRIC_REPRESENTATION_CONTEXT ( 3 ) GLOBAL_UNCERTAINTY_ASSIGNED_CONTEXT ( ( #221 ) ) GLOBAL_UNIT_ASSIGNED_CONTEXT ( ( #192, #173, #32 ) ) REPRESENTATION_CONTEXT ( 'NONE', 'WORKASPACE' ) );
#180 = ORIENTED_EDGE ( 'NONE', *, *, #204, .T. ) ;
#181 = EDGE_LOOP ( 'NONE', ( #124 ) ) ;
#182 = AXIS2_PLACEMENT_3D ( 'NONE', #223, #170, #7 ) ;
#183 = APPLICATION_CONTEXT ( 'configuration controlled 3d designs of mechanical parts and assemblies' ) ;
#184 = CARTESIAN_POINT ( 'NONE',  ( -1.710332578358783705E-32, 5.999039130647431458E-34, -4.898587196589413537E-18 ) ) ;
#185 = FACE_OUTER_BOUND ( 'NONE', #145, .T. ) ;
#186 = DIRECTION ( 'NONE',  ( -3.491481338843133355E-15, 1.224646799147353207E-16, -1.000000000000000000 ) ) ;
#187 = AXIS2_PLACEMENT_3D ( 'NONE', #22, #74, #77 ) ;
#188 = CARTESIAN_POINT ( 'NONE',  ( 4.233196150788427960E-15, -1.484805334214865441E-16, 1.212435565298210838 ) ) ;
#189 = PLANE ( 'NONE',  #107 ) ;
#190 = APPROVAL_PERSON_ORGANIZATION ( #157, #201, #135 ) ;
#191 = APPROVAL_ROLE ( '' ) ;
#192 =( LENGTH_UNIT ( ) NAMED_UNIT ( * ) SI_UNIT ( .MILLI., .METRE. ) );
#193 = APPLICATION_PROTOCOL_DEFINITION ( 'international standard', 'config_control_design', 1994, #45 ) ;
#194 = AXIS2_PLACEMENT_3D ( 'NONE', #205, #43, #82 ) ;
#195 = FACE_OUTER_BOUND ( 'NONE', #15, .T. ) ;
#196 = DATE_AND_TIME ( #92, #229 ) ;
#197 = EDGE_CURVE ( 'NONE', #51, #51, #67, .T. ) ;
#198 = ORIENTED_EDGE ( 'NONE', *, *, #236, .F. ) ;
#199 = PERSON_AND_ORGANIZATION ( #227, #23 ) ;
#200 = ORIENTED_EDGE ( 'NONE', *, *, #210, .F. ) ;
#201 = APPROVAL ( #64, 'UNSPECIFIED' ) ;
#202 = CARTESIAN_POINT ( 'NONE',  ( 8.030407079339206717E-15, -2.816687638038912056E-16, 2.299999999999999822 ) ) ;
#203 = CLOSED_SHELL ( 'NONE', ( #113, #10, #84, #105, #1, #35 ) ) ;
#204 = EDGE_CURVE ( 'NONE', #138, #138, #234, .T. ) ;
#205 = CARTESIAN_POINT ( 'NONE',  ( 4.233196150788427960E-15, 5.624099184981963977E-33, 1.212435565298210838 ) ) ;
#206 = FACE_OUTER_BOUND ( 'NONE', #91, .T. ) ;
#207 = DIRECTION ( 'NONE',  ( -4.275831445896958607E-31, -1.000000000000000000, -1.224646799147353207E-16 ) ) ;
#208 = AXIS2_PLACEMENT_3D ( 'NONE', #137, #65, #69 ) ;
#209 = DIRECTION ( 'NONE',  ( 4.355100981429076768E-31, 1.000000000000000000, 1.224646799147353207E-16 ) ) ;
#210 = EDGE_CURVE ( 'NONE', #101, #101, #166, .T. ) ;
#211 = PERSON_AND_ORGANIZATION_ROLE ( 'design_owner' ) ;
#212 = CIRCLE ( 'NONE', #8, 0.7499999999999998890 ) ;
#213 = CARTESIAN_POINT ( 'NONE',  ( 4.233196150788427960E-15, 0.7499999999999997780, 1.212435565298210838 ) ) ;
#214 = VERTEX_POINT ( 'NONE', #68 ) ;
#215 = CARTESIAN_POINT ( 'NONE',  ( 0.0000000000000000000, 0.0000000000000000000, 0.0000000000000000000 ) ) ;
#216 = EDGE_CURVE ( 'NONE', #214, #214, #37, .T. ) ;
#217 = CALENDAR_DATE ( 2021, 24, 11 ) ;
#218 = COORDINATED_UNIVERSAL_TIME_OFFSET ( 1, 0, .AHEAD. ) ;
#219 = ADVANCED_FACE ( 'NONE', ( #4 ), #129, .T. ) ;
#220 = APPROVAL_ROLE ( '' ) ;
#221 = UNCERTAINTY_MEASURE_WITH_UNIT (LENGTH_MEASURE( 1.000000000000000082E-05 ), #192, 'distance_accuracy_value', 'NONE');
#222 = ORIENTED_EDGE ( 'NONE', *, *, #79, .F. ) ;
#223 = CARTESIAN_POINT ( 'NONE',  ( 1.983837810246228641E-14, -6.958366345301815590E-16, 5.681937314617162116 ) ) ;
#224 = APPROVAL_PERSON_ORGANIZATION ( #30, #39, #191 ) ;
#225 = DIRECTION ( 'NONE',  ( -3.491481338843133355E-15, 1.224646799147353207E-16, -1.000000000000000000 ) ) ;
#226 = DIRECTION ( 'NONE',  ( -3.491481338843133355E-15, 1.224646799147353207E-16, -1.000000000000000000 ) ) ;
#227 = PERSON ( 'UNSPECIFIED', 'UNSPECIFIED', 'UNSPECIFIED', ('UNSPECIFIED'), ('UNSPECIFIED'), ('UNSPECIFIED') ) ;
#228 = CARTESIAN_POINT ( 'NONE',  ( 4.233196150788427960E-15, 5.624099184981963977E-33, 1.212435565298210838 ) ) ;
#229 = LOCAL_TIME ( 8, 10, 3.000000000000000000, #218 ) ;
#230 = CC_DESIGN_DATE_AND_TIME_ASSIGNMENT ( #238, #16, ( #134 ) ) ;
#231 = DIRECTION ( 'NONE',  ( 0.0000000000000000000, 1.000000000000000000, 0.0000000000000000000 ) ) ;
#232 = DATE_AND_TIME ( #26, #55 ) ;
#233 = DATE_AND_TIME ( #28, #154 ) ;
#234 = CIRCLE ( 'NONE', #121, 0.7499999999999998890 ) ;
#235 = DIRECTION ( 'NONE',  ( 1.000000000000000000, 0.0000000000000000000, 0.0000000000000000000 ) ) ;
#236 = EDGE_CURVE ( 'NONE', #120, #120, #162, .T. ) ;
#237 = CC_DESIGN_PERSON_AND_ORGANIZATION_ASSIGNMENT ( #11, #172, ( #127 ) ) ;
#238 = DATE_AND_TIME ( #217, #89 ) ;
#239 = AXIS2_PLACEMENT_3D ( 'NONE', #168, #130, #6 ) ;
#240 = EDGE_LOOP ( 'NONE', ( #109 ) ) ;
#241 = EDGE_LOOP ( 'NONE', ( #19 ) ) ;
#242 = SECURITY_CLASSIFICATION_LEVEL ( 'unclassified' ) ;
#243 = LOCAL_TIME ( 8, 10, 3.000000000000000000, #108 ) ;
ENDSEC;
END-ISO-10303-21;
