ISO-10303-21;
HEADER;
FILE_DESCRIPTION (( 'STEP AP203' ),
    '1' );
FILE_NAME ('976366.step',
    '2021-11-24T07:10:03',
    ( '' ),
    ( '' ),
    'SwSTEP 2.0',
    'SolidWorks 2019',
    '' );
FILE_SCHEMA (( 'CONFIG_CONTROL_DESIGN' ));
ENDSEC;

DATA;
#1 = ORIENTED_EDGE ( 'NONE', *, *, #21, .F. ) ;
#2 = FACE_OUTER_BOUND ( 'NONE', #71, .T. ) ;
#3 = CARTESIAN_POINT ( 'NONE',  ( -1.068957861474239405E-32, 3.749399456654643592E-34, -3.061616997868382402E-18 ) ) ;
#4 = APPROVAL ( #165, 'UNSPECIFIED' ) ;
#5 = FACE_OUTER_BOUND ( 'NONE', #173, .T. ) ;
#6 = DIRECTION ( 'NONE',  ( -3.491481338843133355E-15, 1.224646799147353207E-16, -1.000000000000000000 ) ) ;
#7 = LOCAL_TIME ( 8, 10, 3.000000000000000000, #28 ) ;
#8 = ADVANCED_FACE ( 'NONE', ( #96 ), #74, .T. ) ;
#9 = APPROVAL_PERSON_ORGANIZATION ( #235, #35, #148 ) ;
#10 = VERTEX_POINT ( 'NONE', #47 ) ;
#11 = VERTEX_POINT ( 'NONE', #29 ) ;
#12 = ORIENTED_EDGE ( 'NONE', *, *, #200, .T. ) ;
#13 = CC_DESIGN_PERSON_AND_ORGANIZATION_ASSIGNMENT ( #73, #34, ( #170 ) ) ;
#14 = APPROVAL_PERSON_ORGANIZATION ( #205, #154, #56 ) ;
#15 = ORIENTED_EDGE ( 'NONE', *, *, #75, .F. ) ;
#16 = EDGE_LOOP ( 'NONE', ( #153 ) ) ;
#17 = ORIENTED_EDGE ( 'NONE', *, *, #79, .F. ) ;
#18 = LOCAL_TIME ( 8, 10, 3.000000000000000000, #216 ) ;
#19 = CARTESIAN_POINT ( 'NONE',  ( 1.326762908760390423E-13, 8.998558695971103225E-33, 38.00000000000000000 ) ) ;
#20 = DIRECTION ( 'NONE',  ( -4.275831445896958607E-31, -1.000000000000000000, -1.224646799147353207E-16 ) ) ;
#21 = EDGE_CURVE ( 'NONE', #11, #11, #32, .T. ) ;
#22 = FACE_OUTER_BOUND ( 'NONE', #139, .T. ) ;
#23 = AXIS2_PLACEMENT_3D ( 'NONE', #145, #102, #103 ) ;
#24 = PRODUCT_DEFINITION_SHAPE ( 'NONE', 'NONE',  #55 ) ;
#25 = FACE_OUTER_BOUND ( 'NONE', #137, .T. ) ;
#26 = FACE_OUTER_BOUND ( 'NONE', #185, .T. ) ;
#27 = VERTEX_POINT ( 'NONE', #90 ) ;
#28 = COORDINATED_UNIVERSAL_TIME_OFFSET ( 1, 0, .AHEAD. ) ;
#29 = CARTESIAN_POINT ( 'NONE',  ( 8.030407079339206717E-15, 0.7500000000000006661, 2.299999999999999822 ) ) ;
#30 = VERTEX_POINT ( 'NONE', #222 ) ;
#31 = EDGE_CURVE ( 'NONE', #67, #67, #197, .T. ) ;
#32 = CIRCLE ( 'NONE', #141, 0.7500000000000009992 ) ;
#33 = APPLICATION_PROTOCOL_DEFINITION ( 'international standard', 'config_control_design', 1994, #119 ) ;
#34 = PERSON_AND_ORGANIZATION_ROLE ( 'creator' ) ;
#35 = APPROVAL ( #64, 'UNSPECIFIED' ) ;
#36 = DATE_TIME_ROLE ( 'classification_date' ) ;
#37 = DATE_AND_TIME ( #243, #130 ) ;
#38 = AXIS2_PLACEMENT_3D ( 'NONE', #3, #209, #196 ) ;
#39 = ADVANCED_FACE ( 'NONE', ( #5, #60 ), #187, .T. ) ;
#40 = DIRECTION ( 'NONE',  ( -3.491481338843133355E-15, 1.224646799147353207E-16, -1.000000000000000000 ) ) ;
#41 = DIRECTION ( 'NONE',  ( -3.491481338843133355E-15, 1.224646799147353207E-16, -1.000000000000000000 ) ) ;
#42 = CARTESIAN_POINT ( 'NONE',  ( -5.344789307371197027E-33, 1.874699728327321796E-34, -1.530808498934191201E-18 ) ) ;
#43 = DIRECTION ( 'NONE',  ( -3.491481338843133355E-15, 1.224646799147353207E-16, -1.000000000000000000 ) ) ;
#44 = AXIS2_PLACEMENT_3D ( 'NONE', #45, #41, #195 ) ;
#45 = CARTESIAN_POINT ( 'NONE',  ( 1.316288464743861212E-13, -4.616918432785521081E-15, 37.69999999999999574 ) ) ;
#46 = CALENDAR_DATE ( 2021, 24, 11 ) ;
#47 = CARTESIAN_POINT ( 'NONE',  ( 4.293670381513976468E-15, 0.7499999999999997780, 1.229756073373899472 ) ) ;
#48 = AXIS2_PLACEMENT_3D ( 'NONE', #211, #199, #124 ) ;
#49 = CARTESIAN_POINT ( 'NONE',  ( 0.0000000000000000000, 0.0000000000000000000, 0.0000000000000000000 ) ) ;
#50 = AXIS2_PLACEMENT_3D ( 'NONE', #178, #6, #179 ) ;
#51 = PERSON_AND_ORGANIZATION ( #174, #53 ) ;
#52 = ORIENTED_EDGE ( 'NONE', *, *, #113, .T. ) ;
#53 = ORGANIZATION ( 'UNSPECIFIED', 'UNSPECIFIED', '' ) ;
#54 = DESIGN_CONTEXT ( 'detailed design', #213, 'design' ) ;
#55 = PRODUCT_DEFINITION ( 'UNKNOWN', '', #170, #54 ) ;
#56 = APPROVAL_ROLE ( '' ) ;
#57 = FACE_OUTER_BOUND ( 'NONE', #78, .T. ) ;
#58 = AXIS2_PLACEMENT_3D ( 'NONE', #49, #182, #167 ) ;
#59 = CARTESIAN_POINT ( 'NONE',  ( 4.293670381513977257E-15, 5.624099184981963977E-33, 1.229756073373899694 ) ) ;
#60 = FACE_BOUND ( 'NONE', #16, .T. ) ;
#61 = FACE_OUTER_BOUND ( 'NONE', #95, .T. ) ;
#62 = TOROIDAL_SURFACE ( 'NONE', #204, 8.750000000000000000, 8.000000000000000000 ) ;
#63 = PERSON_AND_ORGANIZATION ( #174, #53 ) ;
#64 = APPROVAL_STATUS ( 'not_yet_approved' ) ;
#65 = DATE_AND_TIME ( #110, #7 ) ;
#66 =( GEOMETRIC_REPRESENTATION_CONTEXT ( 3 ) GLOBAL_UNCERTAINTY_ASSIGNED_CONTEXT ( ( #117 ) ) GLOBAL_UNIT_ASSIGNED_CONTEXT ( ( #183, #93, #133 ) ) REPRESENTATION_CONTEXT ( 'NONE', 'WORKASPACE' ) );
#67 = VERTEX_POINT ( 'NONE', #217 ) ;
#68 = CALENDAR_DATE ( 2021, 24, 11 ) ;
#69 = AXIS2_PLACEMENT_3D ( 'NONE', #231, #126, #198 ) ;
#70 = APPROVAL_DATE_TIME ( #65, #35 ) ;
#71 = EDGE_LOOP ( 'NONE', ( #188 ) ) ;
#72 = APPROVAL_STATUS ( 'not_yet_approved' ) ;
#73 = PERSON_AND_ORGANIZATION ( #174, #53 ) ;
#74 = PLANE ( 'NONE',  #76 ) ;
#75 = EDGE_CURVE ( 'NONE', #10, #10, #91, .T. ) ;
#76 = AXIS2_PLACEMENT_3D ( 'NONE', #210, #160, #214 ) ;
#77 = ORIENTED_EDGE ( 'NONE', *, *, #31, .F. ) ;
#78 = EDGE_LOOP ( 'NONE', ( #52 ) ) ;
#79 = EDGE_CURVE ( 'NONE', #27, #27, #207, .T. ) ;
#80 = FACE_BOUND ( 'NONE', #186, .T. ) ;
#81 = FACE_OUTER_BOUND ( 'NONE', #172, .T. ) ;
#82 = CC_DESIGN_APPROVAL ( #154, ( #230 ) ) ;
#83 = DIRECTION ( 'NONE',  ( -3.491481338843133355E-15, 1.224646799147353207E-16, -1.000000000000000000 ) ) ;
#84 = DIRECTION ( 'NONE',  ( 0.0000000000000000000, 1.000000000000000000, 0.0000000000000000000 ) ) ;
#85 = ADVANCED_FACE ( 'NONE', ( #25, #80 ), #135, .T. ) ;
#86 = FACE_OUTER_BOUND ( 'NONE', #94, .T. ) ;
#87 = AXIS2_PLACEMENT_3D ( 'NONE', #19, #157, #229 ) ;
#88 = CLOSED_SHELL ( 'NONE', ( #128, #85, #8 ) ) ;
#89 = PERSON_AND_ORGANIZATION ( #174, #53 ) ;
#90 = CARTESIAN_POINT ( 'NONE',  ( 1.316288464743861212E-13, 1.499999999999998668, 37.69999999999999574 ) ) ;
#91 = CIRCLE ( 'NONE', #23, 0.7499999999999998890 ) ;
#92 = CARTESIAN_POINT ( 'NONE',  ( 4.293670381513976468E-15, 0.7499999999999997780, 1.229756073373899472 ) ) ;
#93 =( NAMED_UNIT ( * ) PLANE_ANGLE_UNIT ( ) SI_UNIT ( $, .RADIAN. ) );
#94 = EDGE_LOOP ( 'NONE', ( #242 ) ) ;
#95 = EDGE_LOOP ( 'NONE', ( #206 ) ) ;
#96 = FACE_OUTER_BOUND ( 'NONE', #224, .T. ) ;
#97 = CC_DESIGN_PERSON_AND_ORGANIZATION_ASSIGNMENT ( #221, #239, ( #146 ) ) ;
#98 = CALENDAR_DATE ( 2021, 24, 11 ) ;
#99 = EDGE_LOOP ( 'NONE', ( #12 ) ) ;
#100 = APPROVAL_PERSON_ORGANIZATION ( #89, #4, #112 ) ;
#101 = CARTESIAN_POINT ( 'NONE',  ( 1.326762908760390423E-13, -4.653657836759941941E-15, 38.00000000000000000 ) ) ;
#102 = DIRECTION ( 'NONE',  ( -3.491481338843133355E-15, 1.224646799147353207E-16, -1.000000000000000000 ) ) ;
#103 = DIRECTION ( 'NONE',  ( 0.0000000000000000000, 1.000000000000000000, 0.0000000000000000000 ) ) ;
#104 = CYLINDRICAL_SURFACE ( 'NONE', #240, 0.7500000000000004441 ) ;
#105 = ADVANCED_FACE ( 'NONE', ( #26, #81 ), #159, .T. ) ;
#106 = DIRECTION ( 'NONE',  ( 0.0000000000000000000, 1.000000000000000000, 0.0000000000000000000 ) ) ;
#107 = APPLICATION_PROTOCOL_DEFINITION ( 'international standard', 'config_control_design', 1994, #213 ) ;
#108 = AXIS2_PLACEMENT_3D ( 'NONE', #59, #233, #143 ) ;
#109 = CC_DESIGN_DATE_AND_TIME_ASSIGNMENT ( #37, #36, ( #230 ) ) ;
#110 = CALENDAR_DATE ( 2021, 24, 11 ) ;
#111 = CARTESIAN_POINT ( 'NONE',  ( 1.983837810246228641E-14, 1.499999999999996225, 5.681937314617162116 ) ) ;
#112 = APPROVAL_ROLE ( '' ) ;
#113 = EDGE_CURVE ( 'NONE', #184, #184, #151, .T. ) ;
#114 = ORIENTED_EDGE ( 'NONE', *, *, #75, .T. ) ;
#115 = CC_DESIGN_SECURITY_CLASSIFICATION ( #230, ( #170 ) ) ;
#116 = APPROVAL_DATE_TIME ( #152, #154 ) ;
#117 = UNCERTAINTY_MEASURE_WITH_UNIT (LENGTH_MEASURE( 1.000000000000000082E-05 ), #183, 'distance_accuracy_value', 'NONE');
#118 = PERSON_AND_ORGANIZATION_ROLE ( 'classification_officer' ) ;
#119 = APPLICATION_CONTEXT ( 'configuration controlled 3d designs of mechanical parts and assemblies' ) ;
#120 = FACE_OUTER_BOUND ( 'NONE', #190, .T. ) ;
#121 = DIRECTION ( 'NONE',  ( 0.0000000000000000000, 1.000000000000000000, 0.0000000000000000000 ) ) ;
#122 = CARTESIAN_POINT ( 'NONE',  ( 0.0000000000000000000, 0.0000000000000000000, 0.0000000000000000000 ) ) ;
#123 = EDGE_CURVE ( 'NONE', #149, #149, #163, .T. ) ;
#124 = DIRECTION ( 'NONE',  ( 4.275831445896959482E-31, 1.000000000000000000, 1.224646799147353207E-16 ) ) ;
#125 = LOCAL_TIME ( 8, 10, 3.000000000000000000, #203 ) ;
#126 = DIRECTION ( 'NONE',  ( 3.491481338843133355E-15, -1.224646799147353207E-16, 1.000000000000000000 ) ) ;
#127 = DATE_AND_TIME ( #46, #18 ) ;
#128 = ADVANCED_FACE ( 'NONE', ( #177 ), #180, .F. ) ;
#129 = DIRECTION ( 'NONE',  ( 4.355100981429076768E-31, 1.000000000000000000, 1.224646799147353207E-16 ) ) ;
#130 = LOCAL_TIME ( 8, 10, 3.000000000000000000, #226 ) ;
#131 = CARTESIAN_POINT ( 'NONE',  ( 8.030407079339206717E-15, 0.0000000000000000000, 2.299999999999999822 ) ) ;
#132 = MANIFOLD_SOLID_BREP ( 'Corps-Déplacer/Copier1[1]', #227 ) ;
#133 =( NAMED_UNIT ( * ) SI_UNIT ( $, .STERADIAN. ) SOLID_ANGLE_UNIT ( ) );
#134 = ADVANCED_BREP_SHAPE_REPRESENTATION ( '976366', ( #132, #215, #58 ), #66 ) ;
#135 = CONICAL_SURFACE ( 'NONE', #69, 0.04000000000000000083, 0.5235987755983000369 ) ;
#136 = ADVANCED_FACE ( 'NONE', ( #2 ), #161, .F. ) ;
#137 = EDGE_LOOP ( 'NONE', ( #114 ) ) ;
#138 = AXIS2_PLACEMENT_3D ( 'NONE', #176, #83, #121 ) ;
#139 = EDGE_LOOP ( 'NONE', ( #1 ) ) ;
#140 = DIRECTION ( 'NONE',  ( 4.275831445896958607E-31, 1.000000000000000000, 1.224646799147353207E-16 ) ) ;
#141 = AXIS2_PLACEMENT_3D ( 'NONE', #234, #43, #84 ) ;
#142 = DIRECTION ( 'NONE',  ( 0.0000000000000000000, 1.000000000000000000, 0.0000000000000000000 ) ) ;
#143 = DIRECTION ( 'NONE',  ( -4.275831445896958607E-31, -1.000000000000000000, -1.224646799147353207E-16 ) ) ;
#144 = CARTESIAN_POINT ( 'NONE',  ( 4.293670381513976468E-15, -1.506016838989363613E-16, 1.229756073373899472 ) ) ;
#145 = CARTESIAN_POINT ( 'NONE',  ( 4.293670381513976468E-15, -1.506016838989363613E-16, 1.229756073373899472 ) ) ;
#146 = PRODUCT ( '976366', '976366', '', ( #237 ) ) ;
#147 = PERSON_AND_ORGANIZATION_ROLE ( 'creator' ) ;
#148 = APPROVAL_ROLE ( '' ) ;
#149 = VERTEX_POINT ( 'NONE', #92 ) ;
#150 = SHAPE_DEFINITION_REPRESENTATION ( #24, #134 ) ;
#151 = CIRCLE ( 'NONE', #50, 1.499999999999996669 ) ;
#152 = DATE_AND_TIME ( #98, #158 ) ;
#153 = ORIENTED_EDGE ( 'NONE', *, *, #31, .T. ) ;
#154 = APPROVAL ( #72, 'UNSPECIFIED' ) ;
#155 = CC_DESIGN_APPROVAL ( #35, ( #170 ) ) ;
#156 = ADVANCED_FACE ( 'NONE', ( #61, #86 ), #104, .T. ) ;
#157 = DIRECTION ( 'NONE',  ( -3.491481338843133355E-15, 1.224646799147353207E-16, -1.000000000000000000 ) ) ;
#158 = LOCAL_TIME ( 8, 10, 3.000000000000000000, #191 ) ;
#159 = CYLINDRICAL_SURFACE ( 'NONE', #48, 1.500000000000000000 ) ;
#160 = DIRECTION ( 'NONE',  ( 3.491481338843133355E-15, -1.224646799147353207E-16, 1.000000000000000000 ) ) ;
#161 = PLANE ( 'NONE',  #108 ) ;
#162 = DIRECTION ( 'NONE',  ( -3.491481338843133355E-15, 1.224646799147353207E-16, -1.000000000000000000 ) ) ;
#163 = CIRCLE ( 'NONE', #181, 0.7499999999999998890 ) ;
#164 = DATE_TIME_ROLE ( 'creation_date' ) ;
#165 = APPROVAL_STATUS ( 'not_yet_approved' ) ;
#166 = CC_DESIGN_DATE_AND_TIME_ASSIGNMENT ( #127, #164, ( #55 ) ) ;
#167 = DIRECTION ( 'NONE',  ( 1.000000000000000000, 0.0000000000000000000, 0.0000000000000000000 ) ) ;
#168 = DATE_AND_TIME ( #68, #125 ) ;
#169 = ORIENTED_EDGE ( 'NONE', *, *, #79, .T. ) ;
#170 = PRODUCT_DEFINITION_FORMATION_WITH_SPECIFIED_SOURCE ( 'ANY', '', #146, .NOT_KNOWN. ) ;
#171 = PRODUCT_RELATED_PRODUCT_CATEGORY ( 'detail', '', ( #146 ) ) ;
#172 = EDGE_LOOP ( 'NONE', ( #169 ) ) ;
#173 = EDGE_LOOP ( 'NONE', ( #17 ) ) ;
#174 = PERSON ( 'UNSPECIFIED', 'UNSPECIFIED', 'UNSPECIFIED', ('UNSPECIFIED'), ('UNSPECIFIED'), ('UNSPECIFIED') ) ;
#175 = AXIS2_PLACEMENT_3D ( 'NONE', #42, #212, #20 ) ;
#176 = CARTESIAN_POINT ( 'NONE',  ( 1.326762908760390423E-13, -4.653657836759941941E-15, 38.00000000000000000 ) ) ;
#177 = FACE_OUTER_BOUND ( 'NONE', #99, .T. ) ;
#178 = CARTESIAN_POINT ( 'NONE',  ( 1.983837810246228641E-14, -6.958366345301815590E-16, 5.681937314617162116 ) ) ;
#179 = DIRECTION ( 'NONE',  ( 0.0000000000000000000, 1.000000000000000000, 0.0000000000000000000 ) ) ;
#180 = PLANE ( 'NONE',  #175 ) ;
#181 = AXIS2_PLACEMENT_3D ( 'NONE', #144, #40, #142 ) ;
#182 = DIRECTION ( 'NONE',  ( 0.0000000000000000000, 0.0000000000000000000, 1.000000000000000000 ) ) ;
#183 =( LENGTH_UNIT ( ) NAMED_UNIT ( * ) SI_UNIT ( .MILLI., .METRE. ) );
#184 = VERTEX_POINT ( 'NONE', #111 ) ;
#185 = EDGE_LOOP ( 'NONE', ( #228 ) ) ;
#186 = EDGE_LOOP ( 'NONE', ( #241 ) ) ;
#187 = CONICAL_SURFACE ( 'NONE', #138, 1.200000000000003286, 0.7853981633974453924 ) ;
#188 = ORIENTED_EDGE ( 'NONE', *, *, #123, .T. ) ;
#189 = PERSON_AND_ORGANIZATION ( #174, #53 ) ;
#190 = EDGE_LOOP ( 'NONE', ( #77 ) ) ;
#191 = COORDINATED_UNIVERSAL_TIME_OFFSET ( 1, 0, .AHEAD. ) ;
#192 = CIRCLE ( 'NONE', #38, 0.04000000000000000083 ) ;
#193 = PLANE ( 'NONE',  #87 ) ;
#194 = CC_DESIGN_PERSON_AND_ORGANIZATION_ASSIGNMENT ( #51, #118, ( #230 ) ) ;
#195 = DIRECTION ( 'NONE',  ( 0.0000000000000000000, 1.000000000000000000, 0.0000000000000000000 ) ) ;
#196 = DIRECTION ( 'NONE',  ( 4.275831445896958607E-31, 1.000000000000000000, 1.224646799147353207E-16 ) ) ;
#197 = CIRCLE ( 'NONE', #238, 1.200000000000003286 ) ;
#198 = DIRECTION ( 'NONE',  ( -4.275831445896958607E-31, -1.000000000000000000, -1.224646799147353207E-16 ) ) ;
#199 = DIRECTION ( 'NONE',  ( -3.491481338843133355E-15, 1.224646799147353207E-16, -1.000000000000000000 ) ) ;
#200 = EDGE_CURVE ( 'NONE', #30, #30, #192, .T. ) ;
#201 = APPROVAL_DATE_TIME ( #168, #4 ) ;
#202 = ADVANCED_FACE ( 'NONE', ( #120 ), #193, .F. ) ;
#203 = COORDINATED_UNIVERSAL_TIME_OFFSET ( 1, 0, .AHEAD. ) ;
#204 = AXIS2_PLACEMENT_3D ( 'NONE', #131, #220, #129 ) ;
#205 = PERSON_AND_ORGANIZATION ( #174, #53 ) ;
#206 = ORIENTED_EDGE ( 'NONE', *, *, #21, .T. ) ;
#207 = CIRCLE ( 'NONE', #44, 1.500000000000003331 ) ;
#208 = CC_DESIGN_PERSON_AND_ORGANIZATION_ASSIGNMENT ( #63, #147, ( #55 ) ) ;
#209 = DIRECTION ( 'NONE',  ( -3.491481338843133355E-15, 1.224646799147353207E-16, -1.000000000000000000 ) ) ;
#210 = CARTESIAN_POINT ( 'NONE',  ( 4.293670381513977257E-15, 5.624099184981963977E-33, 1.229756073373899694 ) ) ;
#211 = CARTESIAN_POINT ( 'NONE',  ( 0.0000000000000000000, 0.0000000000000000000, 0.0000000000000000000 ) ) ;
#212 = DIRECTION ( 'NONE',  ( 3.491481338843133355E-15, -1.224646799147353207E-16, 1.000000000000000000 ) ) ;
#213 = APPLICATION_CONTEXT ( 'configuration controlled 3d designs of mechanical parts and assemblies' ) ;
#214 = DIRECTION ( 'NONE',  ( -4.275831445896958607E-31, -1.000000000000000000, -1.224646799147353207E-16 ) ) ;
#215 = MANIFOLD_SOLID_BREP ( 'Corps-Déplacer/Copier1[2]', #88 ) ;
#216 = COORDINATED_UNIVERSAL_TIME_OFFSET ( 1, 0, .AHEAD. ) ;
#217 = CARTESIAN_POINT ( 'NONE',  ( 1.326762908760390423E-13, 1.199999999999998845, 38.00000000000000000 ) ) ;
#218 = ADVANCED_FACE ( 'NONE', ( #57, #22 ), #62, .F. ) ;
#219 = CC_DESIGN_APPROVAL ( #4, ( #55 ) ) ;
#220 = DIRECTION ( 'NONE',  ( -3.491481338843133355E-15, 1.224646799147353207E-16, -1.000000000000000000 ) ) ;
#221 = PERSON_AND_ORGANIZATION ( #174, #53 ) ;
#222 = CARTESIAN_POINT ( 'NONE',  ( 6.413747168845440264E-33, 0.04000000000000000083, 1.836970198721030365E-18 ) ) ;
#223 = PERSON_AND_ORGANIZATION_ROLE ( 'design_supplier' ) ;
#224 = EDGE_LOOP ( 'NONE', ( #15 ) ) ;
#225 = SECURITY_CLASSIFICATION_LEVEL ( 'unclassified' ) ;
#226 = COORDINATED_UNIVERSAL_TIME_OFFSET ( 1, 0, .AHEAD. ) ;
#227 = CLOSED_SHELL ( 'NONE', ( #136, #156, #218, #105, #39, #202 ) ) ;
#228 = ORIENTED_EDGE ( 'NONE', *, *, #113, .F. ) ;
#229 = DIRECTION ( 'NONE',  ( 4.275831445896958607E-31, 1.000000000000000000, 1.224646799147353207E-16 ) ) ;
#230 = SECURITY_CLASSIFICATION ( '', '', #225 ) ;
#231 = CARTESIAN_POINT ( 'NONE',  ( -1.068957861474239405E-32, 3.749399456654643592E-34, -3.061616997868382402E-18 ) ) ;
#232 = DIRECTION ( 'NONE',  ( -3.491481338843133355E-15, 1.224646799147353207E-16, -1.000000000000000000 ) ) ;
#233 = DIRECTION ( 'NONE',  ( 3.491481338843133355E-15, -1.224646799147353207E-16, 1.000000000000000000 ) ) ;
#234 = CARTESIAN_POINT ( 'NONE',  ( 8.030407079339206717E-15, -2.816687638038912056E-16, 2.299999999999999822 ) ) ;
#235 = PERSON_AND_ORGANIZATION ( #174, #53 ) ;
#236 = CC_DESIGN_PERSON_AND_ORGANIZATION_ASSIGNMENT ( #189, #223, ( #170 ) ) ;
#237 = MECHANICAL_CONTEXT ( 'NONE', #119, 'mechanical' ) ;
#238 = AXIS2_PLACEMENT_3D ( 'NONE', #101, #232, #106 ) ;
#239 = PERSON_AND_ORGANIZATION_ROLE ( 'design_owner' ) ;
#240 = AXIS2_PLACEMENT_3D ( 'NONE', #122, #162, #140 ) ;
#241 = ORIENTED_EDGE ( 'NONE', *, *, #200, .F. ) ;
#242 = ORIENTED_EDGE ( 'NONE', *, *, #123, .F. ) ;
#243 = CALENDAR_DATE ( 2021, 24, 11 ) ;
ENDSEC;
END-ISO-10303-21;
