ISO-10303-21;
HEADER;
FILE_DESCRIPTION (( 'STEP AP203' ),
    '1' );
FILE_NAME ('976365.step',
    '2021-11-24T07:10:02',
    ( '' ),
    ( '' ),
    'SwSTEP 2.0',
    'SolidWorks 2019',
    '' );
FILE_SCHEMA (( 'CONFIG_CONTROL_DESIGN' ));
ENDSEC;

DATA;
#1 = EDGE_LOOP ( 'NONE', ( #115 ) ) ;
#2 = FACE_OUTER_BOUND ( 'NONE', #114, .T. ) ;
#3 = FACE_OUTER_BOUND ( 'NONE', #189, .T. ) ;
#4 =( GEOMETRIC_REPRESENTATION_CONTEXT ( 3 ) GLOBAL_UNCERTAINTY_ASSIGNED_CONTEXT ( ( #242 ) ) GLOBAL_UNIT_ASSIGNED_CONTEXT ( ( #124, #142, #15 ) ) REPRESENTATION_CONTEXT ( 'NONE', 'WORKASPACE' ) );
#5 = DIRECTION ( 'NONE',  ( -3.491481338843133355E-15, 1.224646799147353207E-16, -1.000000000000000000 ) ) ;
#6 = MANIFOLD_SOLID_BREP ( 'Corps-Déplacer/Copier1[2]', #105 ) ;
#7 = ADVANCED_FACE ( 'NONE', ( #59, #129 ), #53, .T. ) ;
#8 = DIRECTION ( 'NONE',  ( -4.275831445896958607E-31, -1.000000000000000000, -1.224646799147353207E-16 ) ) ;
#9 = CARTESIAN_POINT ( 'NONE',  ( 4.384381727602301598E-15, -1.537834096151110996E-16, 1.255736835487432757 ) ) ;
#10 = CC_DESIGN_APPROVAL ( #148, ( #234 ) ) ;
#11 = EDGE_CURVE ( 'NONE', #72, #72, #210, .T. ) ;
#12 = CARTESIAN_POINT ( 'NONE',  ( 1.316288464743861212E-13, 1.499999999999998668, 37.69999999999999574 ) ) ;
#13 = APPLICATION_PROTOCOL_DEFINITION ( 'international standard', 'config_control_design', 1994, #34 ) ;
#14 = APPROVAL_STATUS ( 'not_yet_approved' ) ;
#15 =( NAMED_UNIT ( * ) SI_UNIT ( $, .STERADIAN. ) SOLID_ANGLE_UNIT ( ) );
#16 = EDGE_LOOP ( 'NONE', ( #206 ) ) ;
#17 = APPROVAL_DATE_TIME ( #76, #214 ) ;
#18 = SECURITY_CLASSIFICATION ( '', '', #186 ) ;
#19 = ORIENTED_EDGE ( 'NONE', *, *, #33, .T. ) ;
#20 = ORIENTED_EDGE ( 'NONE', *, *, #80, .F. ) ;
#21 = CIRCLE ( 'NONE', #137, 1.200000000000003286 ) ;
#22 = DIRECTION ( 'NONE',  ( 4.275831445896958607E-31, 1.000000000000000000, 1.224646799147353207E-16 ) ) ;
#23 = FACE_OUTER_BOUND ( 'NONE', #16, .T. ) ;
#24 = CC_DESIGN_PERSON_AND_ORGANIZATION_ASSIGNMENT ( #205, #221, ( #73 ) ) ;
#25 = DIRECTION ( 'NONE',  ( 0.0000000000000000000, 1.000000000000000000, 0.0000000000000000000 ) ) ;
#26 = LOCAL_TIME ( 8, 10, 2.000000000000000000, #185 ) ;
#27 = PLANE ( 'NONE',  #66 ) ;
#28 = DIRECTION ( 'NONE',  ( -3.491481338843133355E-15, 1.224646799147353207E-16, -1.000000000000000000 ) ) ;
#29 = DATE_AND_TIME ( #68, #236 ) ;
#30 = CARTESIAN_POINT ( 'NONE',  ( 8.030407079339206717E-15, 0.7500000000000006661, 2.299999999999999822 ) ) ;
#31 = PLANE ( 'NONE',  #127 ) ;
#32 = VERTEX_POINT ( 'NONE', #12 ) ;
#33 = EDGE_CURVE ( 'NONE', #51, #51, #203, .T. ) ;
#34 = APPLICATION_CONTEXT ( 'configuration controlled 3d designs of mechanical parts and assemblies' ) ;
#35 = CIRCLE ( 'NONE', #109, 1.500000000000003331 ) ;
#36 = PERSON_AND_ORGANIZATION_ROLE ( 'design_owner' ) ;
#37 = DATE_AND_TIME ( #113, #26 ) ;
#38 = EDGE_LOOP ( 'NONE', ( #176 ) ) ;
#39 = APPROVAL ( #14, 'UNSPECIFIED' ) ;
#40 = PRODUCT_DEFINITION_SHAPE ( 'NONE', 'NONE',  #234 ) ;
#41 = TOROIDAL_SURFACE ( 'NONE', #160, 8.750000000000000000, 8.000000000000000000 ) ;
#42 = ORIENTED_EDGE ( 'NONE', *, *, #80, .T. ) ;
#43 = EDGE_LOOP ( 'NONE', ( #225 ) ) ;
#44 = CARTESIAN_POINT ( 'NONE',  ( 8.030407079339206717E-15, 0.0000000000000000000, 2.299999999999999822 ) ) ;
#45 = AXIS2_PLACEMENT_3D ( 'NONE', #135, #122, #130 ) ;
#46 = FACE_OUTER_BOUND ( 'NONE', #171, .T. ) ;
#47 = DIRECTION ( 'NONE',  ( -3.491481338843133355E-15, 1.224646799147353207E-16, -1.000000000000000000 ) ) ;
#48 = CARTESIAN_POINT ( 'NONE',  ( 4.384381727602300809E-15, -3.630593613614791542E-16, 1.255736835487432534 ) ) ;
#49 = DIRECTION ( 'NONE',  ( -3.491481338843133355E-15, 1.224646799147353207E-16, -1.000000000000000000 ) ) ;
#50 = APPROVAL_PERSON_ORGANIZATION ( #149, #214, #145 ) ;
#51 = VERTEX_POINT ( 'NONE', #233 ) ;
#52 = COORDINATED_UNIVERSAL_TIME_OFFSET ( 1, 0, .AHEAD. ) ;
#53 = CONICAL_SURFACE ( 'NONE', #78, 1.200000000000003286, 0.7853981633974453924 ) ;
#54 = APPROVAL_DATE_TIME ( #202, #39 ) ;
#55 = ORIENTED_EDGE ( 'NONE', *, *, #103, .F. ) ;
#56 = EDGE_LOOP ( 'NONE', ( #96 ) ) ;
#57 = LOCAL_TIME ( 8, 10, 2.000000000000000000, #52 ) ;
#58 = PRODUCT_RELATED_PRODUCT_CATEGORY ( 'detail', '', ( #172 ) ) ;
#59 = FACE_OUTER_BOUND ( 'NONE', #112, .T. ) ;
#60 = FACE_OUTER_BOUND ( 'NONE', #74, .T. ) ;
#61 = AXIS2_PLACEMENT_3D ( 'NONE', #9, #228, #159 ) ;
#62 = CC_DESIGN_DATE_AND_TIME_ASSIGNMENT ( #37, #243, ( #18 ) ) ;
#63 = FACE_OUTER_BOUND ( 'NONE', #56, .T. ) ;
#64 = CARTESIAN_POINT ( 'NONE',  ( 0.0000000000000000000, 0.0000000000000000000, 0.0000000000000000000 ) ) ;
#65 = FACE_OUTER_BOUND ( 'NONE', #38, .T. ) ;
#66 = AXIS2_PLACEMENT_3D ( 'NONE', #102, #181, #8 ) ;
#67 = MECHANICAL_CONTEXT ( 'NONE', #34, 'mechanical' ) ;
#68 = CALENDAR_DATE ( 2021, 24, 11 ) ;
#69 = APPROVAL_DATE_TIME ( #29, #148 ) ;
#70 = CLOSED_SHELL ( 'NONE', ( #169, #166, #126, #192, #7, #86 ) ) ;
#71 = CARTESIAN_POINT ( 'NONE',  ( 1.983837810246228641E-14, 1.499999999999996225, 5.681937314617162116 ) ) ;
#72 = VERTEX_POINT ( 'NONE', #110 ) ;
#73 = PRODUCT_DEFINITION_FORMATION_WITH_SPECIFIED_SOURCE ( 'ANY', '', #172, .NOT_KNOWN. ) ;
#74 = EDGE_LOOP ( 'NONE', ( #223 ) ) ;
#75 = COORDINATED_UNIVERSAL_TIME_OFFSET ( 1, 0, .AHEAD. ) ;
#76 = DATE_AND_TIME ( #219, #165 ) ;
#77 = EDGE_CURVE ( 'NONE', #162, #162, #21, .T. ) ;
#78 = AXIS2_PLACEMENT_3D ( 'NONE', #154, #98, #178 ) ;
#79 = ORIENTED_EDGE ( 'NONE', *, *, #143, .T. ) ;
#80 = EDGE_CURVE ( 'NONE', #183, #183, #146, .T. ) ;
#81 = DIRECTION ( 'NONE',  ( -4.275831445896957731E-31, -1.000000000000000000, -1.224646799147353454E-16 ) ) ;
#82 = DIRECTION ( 'NONE',  ( 3.491481338843133355E-15, -1.224646799147353207E-16, 1.000000000000000000 ) ) ;
#83 = CC_DESIGN_SECURITY_CLASSIFICATION ( #18, ( #73 ) ) ;
#84 = CARTESIAN_POINT ( 'NONE',  ( 0.0000000000000000000, 0.0000000000000000000, 0.0000000000000000000 ) ) ;
#85 = CARTESIAN_POINT ( 'NONE',  ( 1.983837810246228641E-14, -6.958366345301815590E-16, 5.681937314617162116 ) ) ;
#86 = ADVANCED_FACE ( 'NONE', ( #2 ), #132, .F. ) ;
#87 = FACE_BOUND ( 'NONE', #1, .T. ) ;
#88 = ORGANIZATION ( 'UNSPECIFIED', 'UNSPECIFIED', '' ) ;
#89 = AXIS2_PLACEMENT_3D ( 'NONE', #191, #100, #99 ) ;
#90 = PERSON_AND_ORGANIZATION ( #168, #88 ) ;
#91 = APPLICATION_PROTOCOL_DEFINITION ( 'international standard', 'config_control_design', 1994, #150 ) ;
#92 = VERTEX_POINT ( 'NONE', #71 ) ;
#93 = PERSON_AND_ORGANIZATION_ROLE ( 'classification_officer' ) ;
#94 = ORIENTED_EDGE ( 'NONE', *, *, #77, .F. ) ;
#95 = APPROVAL_PERSON_ORGANIZATION ( #237, #39, #144 ) ;
#96 = ORIENTED_EDGE ( 'NONE', *, *, #103, .T. ) ;
#97 = CIRCLE ( 'NONE', #199, 1.499999999999996669 ) ;
#98 = DIRECTION ( 'NONE',  ( -3.491481338843133355E-15, 1.224646799147353207E-16, -1.000000000000000000 ) ) ;
#99 = DIRECTION ( 'NONE',  ( 4.275831445896957731E-31, 1.000000000000000000, 1.224646799147353454E-16 ) ) ;
#100 = DIRECTION ( 'NONE',  ( -3.491481338843133355E-15, 1.224646799147353207E-16, -1.000000000000000000 ) ) ;
#101 = AXIS2_PLACEMENT_3D ( 'NONE', #235, #216, #167 ) ;
#102 = CARTESIAN_POINT ( 'NONE',  ( 4.384381727602300809E-15, -3.630593613614791542E-16, 1.255736835487432534 ) ) ;
#103 = EDGE_CURVE ( 'NONE', #32, #32, #35, .T. ) ;
#104 = DIRECTION ( 'NONE',  ( 4.355100981429076768E-31, 1.000000000000000000, 1.224646799147353207E-16 ) ) ;
#105 = CLOSED_SHELL ( 'NONE', ( #241, #123, #197 ) ) ;
#106 = CC_DESIGN_PERSON_AND_ORGANIZATION_ASSIGNMENT ( #222, #173, ( #73 ) ) ;
#107 = PERSON_AND_ORGANIZATION ( #168, #88 ) ;
#108 = PERSON_AND_ORGANIZATION_ROLE ( 'creator' ) ;
#109 = AXIS2_PLACEMENT_3D ( 'NONE', #196, #208, #25 ) ;
#110 = CARTESIAN_POINT ( 'NONE',  ( -2.137915722948479905E-32, 0.02499999999999999792, -6.123233995736766344E-18 ) ) ;
#111 = CC_DESIGN_DATE_AND_TIME_ASSIGNMENT ( #238, #164, ( #234 ) ) ;
#112 = EDGE_LOOP ( 'NONE', ( #55 ) ) ;
#113 = CALENDAR_DATE ( 2021, 24, 11 ) ;
#114 = EDGE_LOOP ( 'NONE', ( #94 ) ) ;
#115 = ORIENTED_EDGE ( 'NONE', *, *, #11, .F. ) ;
#116 = APPROVAL_STATUS ( 'not_yet_approved' ) ;
#117 = CYLINDRICAL_SURFACE ( 'NONE', #231, 0.7500000000000004441 ) ;
#118 = DIRECTION ( 'NONE',  ( 0.0000000000000000000, 1.000000000000000000, 0.0000000000000000000 ) ) ;
#119 = DIRECTION ( 'NONE',  ( -3.491481338843133355E-15, 1.224646799147353207E-16, -1.000000000000000000 ) ) ;
#120 = CC_DESIGN_PERSON_AND_ORGANIZATION_ASSIGNMENT ( #107, #36, ( #172 ) ) ;
#121 = FACE_OUTER_BOUND ( 'NONE', #187, .T. ) ;
#122 = DIRECTION ( 'NONE',  ( -3.491481338843133355E-15, 1.224646799147353207E-16, -1.000000000000000000 ) ) ;
#123 = ADVANCED_FACE ( 'NONE', ( #207, #87 ), #215, .T. ) ;
#124 =( LENGTH_UNIT ( ) NAMED_UNIT ( * ) SI_UNIT ( .MILLI., .METRE. ) );
#125 = CALENDAR_DATE ( 2021, 24, 11 ) ;
#126 = ADVANCED_FACE ( 'NONE', ( #60, #46 ), #41, .F. ) ;
#127 = AXIS2_PLACEMENT_3D ( 'NONE', #218, #213, #161 ) ;
#128 = LOCAL_TIME ( 8, 10, 2.000000000000000000, #139 ) ;
#129 = FACE_BOUND ( 'NONE', #174, .T. ) ;
#130 = DIRECTION ( 'NONE',  ( 4.275831445896958607E-31, 1.000000000000000000, 1.224646799147353207E-16 ) ) ;
#131 = AXIS2_PLACEMENT_3D ( 'NONE', #177, #49, #194 ) ;
#132 = PLANE ( 'NONE',  #45 ) ;
#133 = CYLINDRICAL_SURFACE ( 'NONE', #239, 1.500000000000000000 ) ;
#134 = CC_DESIGN_PERSON_AND_ORGANIZATION_ASSIGNMENT ( #188, #93, ( #18 ) ) ;
#135 = CARTESIAN_POINT ( 'NONE',  ( 1.326762908760390423E-13, 8.998558695971103225E-33, 38.00000000000000000 ) ) ;
#136 = DIRECTION ( 'NONE',  ( 4.275831445896959482E-31, 1.000000000000000000, 1.224646799147353207E-16 ) ) ;
#137 = AXIS2_PLACEMENT_3D ( 'NONE', #226, #119, #232 ) ;
#138 = APPROVAL_STATUS ( 'not_yet_approved' ) ;
#139 = COORDINATED_UNIVERSAL_TIME_OFFSET ( 1, 0, .AHEAD. ) ;
#140 = CALENDAR_DATE ( 2021, 24, 11 ) ;
#141 = APPROVAL_PERSON_ORGANIZATION ( #198, #148, #212 ) ;
#142 =( NAMED_UNIT ( * ) PLANE_ANGLE_UNIT ( ) SI_UNIT ( $, .RADIAN. ) );
#143 = EDGE_CURVE ( 'NONE', #217, #217, #179, .T. ) ;
#144 = APPROVAL_ROLE ( '' ) ;
#145 = APPROVAL_ROLE ( '' ) ;
#146 = CIRCLE ( 'NONE', #131, 0.7500000000000009992 ) ;
#147 = EDGE_LOOP ( 'NONE', ( #19 ) ) ;
#148 = APPROVAL ( #138, 'UNSPECIFIED' ) ;
#149 = PERSON_AND_ORGANIZATION ( #168, #88 ) ;
#150 = APPLICATION_CONTEXT ( 'configuration controlled 3d designs of mechanical parts and assemblies' ) ;
#151 = ORIENTED_EDGE ( 'NONE', *, *, #200, .F. ) ;
#152 = CC_DESIGN_PERSON_AND_ORGANIZATION_ASSIGNMENT ( #90, #108, ( #234 ) ) ;
#153 = ADVANCED_BREP_SHAPE_REPRESENTATION ( '976365', ( #163, #6, #101 ), #4 ) ;
#154 = CARTESIAN_POINT ( 'NONE',  ( 1.326762908760390423E-13, -4.653657836759941941E-15, 38.00000000000000000 ) ) ;
#155 = CC_DESIGN_APPROVAL ( #214, ( #18 ) ) ;
#156 = DIRECTION ( 'NONE',  ( -4.275831445896958607E-31, -1.000000000000000000, -1.224646799147353207E-16 ) ) ;
#157 = DIRECTION ( 'NONE',  ( -3.491481338843133355E-15, 1.224646799147353207E-16, -1.000000000000000000 ) ) ;
#158 = DIRECTION ( 'NONE',  ( -3.491481338843133355E-15, 1.224646799147353207E-16, -1.000000000000000000 ) ) ;
#159 = DIRECTION ( 'NONE',  ( 0.0000000000000000000, 1.000000000000000000, 0.0000000000000000000 ) ) ;
#160 = AXIS2_PLACEMENT_3D ( 'NONE', #44, #28, #104 ) ;
#161 = DIRECTION ( 'NONE',  ( -4.275831445896958607E-31, -1.000000000000000000, -1.224646799147353207E-16 ) ) ;
#162 = VERTEX_POINT ( 'NONE', #182 ) ;
#163 = MANIFOLD_SOLID_BREP ( 'Corps-Déplacer/Copier1[1]', #70 ) ;
#164 = DATE_TIME_ROLE ( 'creation_date' ) ;
#165 = LOCAL_TIME ( 8, 10, 2.000000000000000000, #75 ) ;
#166 = ADVANCED_FACE ( 'NONE', ( #193, #23 ), #117, .T. ) ;
#167 = DIRECTION ( 'NONE',  ( 1.000000000000000000, 0.0000000000000000000, 0.0000000000000000000 ) ) ;
#168 = PERSON ( 'UNSPECIFIED', 'UNSPECIFIED', 'UNSPECIFIED', ('UNSPECIFIED'), ('UNSPECIFIED'), ('UNSPECIFIED') ) ;
#169 = ADVANCED_FACE ( 'NONE', ( #3 ), #229, .F. ) ;
#170 = SHAPE_DEFINITION_REPRESENTATION ( #40, #153 ) ;
#171 = EDGE_LOOP ( 'NONE', ( #20 ) ) ;
#172 = PRODUCT ( '976365', '976365', '', ( #67 ) ) ;
#173 = PERSON_AND_ORGANIZATION_ROLE ( 'creator' ) ;
#174 = EDGE_LOOP ( 'NONE', ( #204 ) ) ;
#175 = AXIS2_PLACEMENT_3D ( 'NONE', #209, #211, #81 ) ;
#176 = ORIENTED_EDGE ( 'NONE', *, *, #11, .T. ) ;
#177 = CARTESIAN_POINT ( 'NONE',  ( 8.030407079339206717E-15, -2.816687638038912056E-16, 2.299999999999999822 ) ) ;
#178 = DIRECTION ( 'NONE',  ( 0.0000000000000000000, 1.000000000000000000, 0.0000000000000000000 ) ) ;
#179 = CIRCLE ( 'NONE', #220, 0.7499999999999998890 ) ;
#180 = CARTESIAN_POINT ( 'NONE',  ( 4.384381727602301598E-15, -1.537834096151110996E-16, 1.255736835487432757 ) ) ;
#181 = DIRECTION ( 'NONE',  ( 3.491481338843133355E-15, -1.224646799147353207E-16, 1.000000000000000000 ) ) ;
#182 = CARTESIAN_POINT ( 'NONE',  ( 1.326762908760390423E-13, 1.199999999999998845, 38.00000000000000000 ) ) ;
#183 = VERTEX_POINT ( 'NONE', #30 ) ;
#184 = CARTESIAN_POINT ( 'NONE',  ( 4.384381727602301598E-15, 0.7499999999999997780, 1.255736835487432757 ) ) ;
#185 = COORDINATED_UNIVERSAL_TIME_OFFSET ( 1, 0, .AHEAD. ) ;
#186 = SECURITY_CLASSIFICATION_LEVEL ( 'unclassified' ) ;
#187 = EDGE_LOOP ( 'NONE', ( #151 ) ) ;
#188 = PERSON_AND_ORGANIZATION ( #168, #88 ) ;
#189 = EDGE_LOOP ( 'NONE', ( #79 ) ) ;
#190 = AXIS2_PLACEMENT_3D ( 'NONE', #48, #82, #156 ) ;
#191 = CARTESIAN_POINT ( 'NONE',  ( -3.206873584422719174E-32, 1.124819836996393206E-33, -9.184850993605148746E-18 ) ) ;
#192 = ADVANCED_FACE ( 'NONE', ( #121, #63 ), #133, .T. ) ;
#193 = FACE_OUTER_BOUND ( 'NONE', #240, .T. ) ;
#194 = DIRECTION ( 'NONE',  ( 0.0000000000000000000, 1.000000000000000000, 0.0000000000000000000 ) ) ;
#195 = FACE_OUTER_BOUND ( 'NONE', #43, .T. ) ;
#196 = CARTESIAN_POINT ( 'NONE',  ( 1.316288464743861212E-13, -4.616918432785521081E-15, 37.69999999999999574 ) ) ;
#197 = ADVANCED_FACE ( 'NONE', ( #195 ), #27, .T. ) ;
#198 = PERSON_AND_ORGANIZATION ( #168, #88 ) ;
#199 = AXIS2_PLACEMENT_3D ( 'NONE', #85, #158, #230 ) ;
#200 = EDGE_CURVE ( 'NONE', #92, #92, #97, .T. ) ;
#201 = COORDINATED_UNIVERSAL_TIME_OFFSET ( 1, 0, .AHEAD. ) ;
#202 = DATE_AND_TIME ( #125, #57 ) ;
#203 = CIRCLE ( 'NONE', #61, 0.7499999999999998890 ) ;
#204 = ORIENTED_EDGE ( 'NONE', *, *, #77, .T. ) ;
#205 = PERSON_AND_ORGANIZATION ( #168, #88 ) ;
#206 = ORIENTED_EDGE ( 'NONE', *, *, #143, .F. ) ;
#207 = FACE_OUTER_BOUND ( 'NONE', #147, .T. ) ;
#208 = DIRECTION ( 'NONE',  ( -3.491481338843133355E-15, 1.224646799147353207E-16, -1.000000000000000000 ) ) ;
#209 = CARTESIAN_POINT ( 'NONE',  ( -3.206873584422719174E-32, 1.124819836996393206E-33, -9.184850993605148746E-18 ) ) ;
#210 = CIRCLE ( 'NONE', #89, 0.02499999999999999792 ) ;
#211 = DIRECTION ( 'NONE',  ( 3.491481338843133355E-15, -1.224646799147353207E-16, 1.000000000000000000 ) ) ;
#212 = APPROVAL_ROLE ( '' ) ;
#213 = DIRECTION ( 'NONE',  ( 3.491481338843133355E-15, -1.224646799147353207E-16, 1.000000000000000000 ) ) ;
#214 = APPROVAL ( #116, 'UNSPECIFIED' ) ;
#215 = CONICAL_SURFACE ( 'NONE', #175, 0.02499999999999999792, 0.5235987755982999259 ) ;
#216 = DIRECTION ( 'NONE',  ( 0.0000000000000000000, 0.0000000000000000000, 1.000000000000000000 ) ) ;
#217 = VERTEX_POINT ( 'NONE', #184 ) ;
#218 = CARTESIAN_POINT ( 'NONE',  ( -1.603436792211359587E-32, 5.624099184981966029E-34, -4.592425496802574373E-18 ) ) ;
#219 = CALENDAR_DATE ( 2021, 24, 11 ) ;
#220 = AXIS2_PLACEMENT_3D ( 'NONE', #180, #5, #118 ) ;
#221 = PERSON_AND_ORGANIZATION_ROLE ( 'design_supplier' ) ;
#222 = PERSON_AND_ORGANIZATION ( #168, #88 ) ;
#223 = ORIENTED_EDGE ( 'NONE', *, *, #200, .T. ) ;
#224 = DESIGN_CONTEXT ( 'detailed design', #150, 'design' ) ;
#225 = ORIENTED_EDGE ( 'NONE', *, *, #33, .F. ) ;
#226 = CARTESIAN_POINT ( 'NONE',  ( 1.326762908760390423E-13, -4.653657836759941941E-15, 38.00000000000000000 ) ) ;
#227 = CC_DESIGN_APPROVAL ( #39, ( #73 ) ) ;
#228 = DIRECTION ( 'NONE',  ( -3.491481338843133355E-15, 1.224646799147353207E-16, -1.000000000000000000 ) ) ;
#229 = PLANE ( 'NONE',  #190 ) ;
#230 = DIRECTION ( 'NONE',  ( 0.0000000000000000000, 1.000000000000000000, 0.0000000000000000000 ) ) ;
#231 = AXIS2_PLACEMENT_3D ( 'NONE', #84, #157, #22 ) ;
#232 = DIRECTION ( 'NONE',  ( 0.0000000000000000000, 1.000000000000000000, 0.0000000000000000000 ) ) ;
#233 = CARTESIAN_POINT ( 'NONE',  ( 4.384381727602301598E-15, 0.7499999999999997780, 1.255736835487432757 ) ) ;
#234 = PRODUCT_DEFINITION ( 'UNKNOWN', '', #73, #224 ) ;
#235 = CARTESIAN_POINT ( 'NONE',  ( 0.0000000000000000000, 0.0000000000000000000, 0.0000000000000000000 ) ) ;
#236 = LOCAL_TIME ( 8, 10, 2.000000000000000000, #201 ) ;
#237 = PERSON_AND_ORGANIZATION ( #168, #88 ) ;
#238 = DATE_AND_TIME ( #140, #128 ) ;
#239 = AXIS2_PLACEMENT_3D ( 'NONE', #64, #47, #136 ) ;
#240 = EDGE_LOOP ( 'NONE', ( #42 ) ) ;
#241 = ADVANCED_FACE ( 'NONE', ( #65 ), #31, .F. ) ;
#242 = UNCERTAINTY_MEASURE_WITH_UNIT (LENGTH_MEASURE( 1.000000000000000082E-05 ), #124, 'distance_accuracy_value', 'NONE');
#243 = DATE_TIME_ROLE ( 'classification_date' ) ;
ENDSEC;
END-ISO-10303-21;
