ISO-10303-21;
HEADER;
FILE_DESCRIPTION (( 'STEP AP203' ),
    '1' );
FILE_NAME ('976364.step',
    '2021-11-24T06:51:43',
    ( '' ),
    ( '' ),
    'SwSTEP 2.0',
    'SolidWorks 2019',
    '' );
FILE_SCHEMA (( 'CONFIG_CONTROL_DESIGN' ));
ENDSEC;

DATA;
#1 = ORIENTED_EDGE ( 'NONE', *, *, #94, .T. ) ;
#2 = CALENDAR_DATE ( 2021, 24, 11 ) ;
#3 = EDGE_LOOP ( 'NONE', ( #23 ) ) ;
#4 = PERSON_AND_ORGANIZATION ( #146, #74 ) ;
#5 = EDGE_LOOP ( 'NONE', ( #97 ) ) ;
#6 = CC_DESIGN_PERSON_AND_ORGANIZATION_ASSIGNMENT ( #19, #41, ( #239 ) ) ;
#7 = FACE_OUTER_BOUND ( 'NONE', #172, .T. ) ;
#8 = DIRECTION ( 'NONE',  ( 0.0000000000000000000, 1.000000000000000000, 0.0000000000000000000 ) ) ;
#9 = CC_DESIGN_PERSON_AND_ORGANIZATION_ASSIGNMENT ( #127, #75, ( #239 ) ) ;
#10 = DIRECTION ( 'NONE',  ( 4.275831445896958607E-31, 1.000000000000000000, 1.224646799147352961E-16 ) ) ;
#11 = CIRCLE ( 'NONE', #55, 0.7499999999999998890 ) ;
#12 = VERTEX_POINT ( 'NONE', #192 ) ;
#13 = VERTEX_POINT ( 'NONE', #225 ) ;
#14 = AXIS2_PLACEMENT_3D ( 'NONE', #118, #161, #47 ) ;
#15 = APPROVAL ( #201, 'UNSPECIFIED' ) ;
#16 = CALENDAR_DATE ( 2021, 24, 11 ) ;
#17 =( NAMED_UNIT ( * ) SI_UNIT ( $, .STERADIAN. ) SOLID_ANGLE_UNIT ( ) );
#18 = MANIFOLD_SOLID_BREP ( 'Corps-Déplacer/Copier1[1]', #36 ) ;
#19 = PERSON_AND_ORGANIZATION ( #146, #74 ) ;
#20 = AXIS2_PLACEMENT_3D ( 'NONE', #117, #186, #8 ) ;
#21 = DATE_AND_TIME ( #2, #31 ) ;
#22 = DIRECTION ( 'NONE',  ( 4.275831445896958607E-31, 1.000000000000000000, 1.224646799147353207E-16 ) ) ;
#23 = ORIENTED_EDGE ( 'NONE', *, *, #187, .F. ) ;
#24 = AXIS2_PLACEMENT_3D ( 'NONE', #202, #38, #222 ) ;
#25 = ORIENTED_EDGE ( 'NONE', *, *, #132, .T. ) ;
#26 = AXIS2_PLACEMENT_3D ( 'NONE', #123, #160, #44 ) ;
#27 = DIRECTION ( 'NONE',  ( -3.491481338843133355E-15, 1.224646799147353207E-16, -1.000000000000000000 ) ) ;
#28 = DIRECTION ( 'NONE',  ( 0.0000000000000000000, 1.000000000000000000, 0.0000000000000000000 ) ) ;
#29 = VERTEX_POINT ( 'NONE', #106 ) ;
#30 = DIRECTION ( 'NONE',  ( 0.0000000000000000000, 1.000000000000000000, 0.0000000000000000000 ) ) ;
#31 = LOCAL_TIME ( 7, 51, 43.00000000000000000, #241 ) ;
#32 = DIRECTION ( 'NONE',  ( 3.491481338843133355E-15, -1.224646799147353207E-16, 1.000000000000000000 ) ) ;
#33 = COORDINATED_UNIVERSAL_TIME_OFFSET ( 1, 0, .AHEAD. ) ;
#34 = APPROVAL ( #110, 'UNSPECIFIED' ) ;
#35 = PERSON_AND_ORGANIZATION_ROLE ( 'design_owner' ) ;
#36 = CLOSED_SHELL ( 'NONE', ( #183, #51, #157, #144, #228, #226 ) ) ;
#37 = CYLINDRICAL_SURFACE ( 'NONE', #173, 0.7500000000000004441 ) ;
#38 = DIRECTION ( 'NONE',  ( 3.491481338843133355E-15, -1.224646799147353207E-16, 1.000000000000000000 ) ) ;
#39 = UNCERTAINTY_MEASURE_WITH_UNIT (LENGTH_MEASURE( 1.000000000000000082E-05 ), #216, 'distance_accuracy_value', 'NONE');
#40 = EDGE_LOOP ( 'NONE', ( #76 ) ) ;
#41 = PERSON_AND_ORGANIZATION_ROLE ( 'design_supplier' ) ;
#42 = AXIS2_PLACEMENT_3D ( 'NONE', #105, #175, #177 ) ;
#43 = ORIENTED_EDGE ( 'NONE', *, *, #94, .F. ) ;
#44 = DIRECTION ( 'NONE',  ( 4.355100981429076768E-31, 1.000000000000000000, 1.224646799147353207E-16 ) ) ;
#45 = CIRCLE ( 'NONE', #14, 1.499999999999996669 ) ;
#46 = FACE_OUTER_BOUND ( 'NONE', #133, .T. ) ;
#47 = DIRECTION ( 'NONE',  ( 0.0000000000000000000, 1.000000000000000000, 0.0000000000000000000 ) ) ;
#48 = DIRECTION ( 'NONE',  ( 3.491481338843133355E-15, -1.224646799147353207E-16, 1.000000000000000000 ) ) ;
#49 = CARTESIAN_POINT ( 'NONE',  ( 1.326762908760390423E-13, -4.653657836759941941E-15, 38.00000000000000000 ) ) ;
#50 = CIRCLE ( 'NONE', #224, 0.07499999999999999722 ) ;
#51 = ADVANCED_FACE ( 'NONE', ( #95, #149 ), #37, .T. ) ;
#52 = COORDINATED_UNIVERSAL_TIME_OFFSET ( 1, 0, .AHEAD. ) ;
#53 = APPROVAL_DATE_TIME ( #217, #171 ) ;
#54 = PERSON_AND_ORGANIZATION ( #146, #74 ) ;
#55 = AXIS2_PLACEMENT_3D ( 'NONE', #138, #189, #28 ) ;
#56 = ADVANCED_FACE ( 'NONE', ( #152, #167 ), #139, .T. ) ;
#57 = CARTESIAN_POINT ( 'NONE',  ( 0.0000000000000000000, 0.0000000000000000000, 0.0000000000000000000 ) ) ;
#58 = CC_DESIGN_APPROVAL ( #15, ( #233 ) ) ;
#59 = DATE_TIME_ROLE ( 'classification_date' ) ;
#60 = CC_DESIGN_PERSON_AND_ORGANIZATION_ASSIGNMENT ( #70, #35, ( #98 ) ) ;
#61 = FACE_OUTER_BOUND ( 'NONE', #135, .T. ) ;
#62 = COORDINATED_UNIVERSAL_TIME_OFFSET ( 1, 0, .AHEAD. ) ;
#63 = ORIENTED_EDGE ( 'NONE', *, *, #187, .T. ) ;
#64 = ORIENTED_EDGE ( 'NONE', *, *, #166, .F. ) ;
#65 = CARTESIAN_POINT ( 'NONE',  ( 1.983837810246228641E-14, 1.499999999999996225, 5.681937314617162116 ) ) ;
#66 = DIRECTION ( 'NONE',  ( -4.275831445896958607E-31, -1.000000000000000000, -1.224646799147353207E-16 ) ) ;
#67 = DIRECTION ( 'NONE',  ( -3.491481338843133355E-15, 1.224646799147353207E-16, -1.000000000000000000 ) ) ;
#68 = FACE_OUTER_BOUND ( 'NONE', #155, .T. ) ;
#69 = PLANE ( 'NONE',  #143 ) ;
#70 = PERSON_AND_ORGANIZATION ( #146, #74 ) ;
#71 = CLOSED_SHELL ( 'NONE', ( #77, #56, #104 ) ) ;
#72 = DIRECTION ( 'NONE',  ( 0.0000000000000000000, 0.0000000000000000000, 1.000000000000000000 ) ) ;
#73 =( NAMED_UNIT ( * ) PLANE_ANGLE_UNIT ( ) SI_UNIT ( $, .RADIAN. ) );
#74 = ORGANIZATION ( 'UNSPECIFIED', 'UNSPECIFIED', '' ) ;
#75 = PERSON_AND_ORGANIZATION_ROLE ( 'creator' ) ;
#76 = ORIENTED_EDGE ( 'NONE', *, *, #141, .F. ) ;
#77 = ADVANCED_FACE ( 'NONE', ( #61 ), #154, .F. ) ;
#78 = LOCAL_TIME ( 7, 51, 43.00000000000000000, #52 ) ;
#79 = DIRECTION ( 'NONE',  ( 3.491481338843133355E-15, -1.224646799147353207E-16, 1.000000000000000000 ) ) ;
#80 = ORIENTED_EDGE ( 'NONE', *, *, #240, .T. ) ;
#81 = ORIENTED_EDGE ( 'NONE', *, *, #132, .F. ) ;
#82 = CIRCLE ( 'NONE', #207, 1.500000000000003331 ) ;
#83 = DIRECTION ( 'NONE',  ( 4.275831445896959482E-31, 1.000000000000000000, 1.224646799147353207E-16 ) ) ;
#84 = DIRECTION ( 'NONE',  ( -3.491481338843133355E-15, 1.224646799147353207E-16, -1.000000000000000000 ) ) ;
#85 = AXIS2_PLACEMENT_3D ( 'NONE', #49, #191, #30 ) ;
#86 = CARTESIAN_POINT ( 'NONE',  ( 8.030407079339206717E-15, -2.816687638038912056E-16, 2.299999999999999822 ) ) ;
#87 = DIRECTION ( 'NONE',  ( -4.275831445896958607E-31, -1.000000000000000000, -1.224646799147353207E-16 ) ) ;
#88 = DIRECTION ( 'NONE',  ( 4.275831445896958607E-31, 1.000000000000000000, 1.224646799147353207E-16 ) ) ;
#89 = AXIS2_PLACEMENT_3D ( 'NONE', #243, #79, #221 ) ;
#90 = COORDINATED_UNIVERSAL_TIME_OFFSET ( 1, 0, .AHEAD. ) ;
#91 = DATE_AND_TIME ( #16, #113 ) ;
#92 = MANIFOLD_SOLID_BREP ( 'Corps-Déplacer/Copier1[2]', #71 ) ;
#93 = DATE_AND_TIME ( #114, #130 ) ;
#94 = EDGE_CURVE ( 'NONE', #229, #229, #219, .T. ) ;
#95 = FACE_OUTER_BOUND ( 'NONE', #200, .T. ) ;
#96 = CIRCLE ( 'NONE', #182, 0.7500000000000009992 ) ;
#97 = ORIENTED_EDGE ( 'NONE', *, *, #211, .F. ) ;
#98 = PRODUCT ( '976364', '976364', '', ( #232 ) ) ;
#99 = CC_DESIGN_DATE_AND_TIME_ASSIGNMENT ( #235, #238, ( #195 ) ) ;
#100 = EDGE_LOOP ( 'NONE', ( #63 ) ) ;
#101 = EDGE_LOOP ( 'NONE', ( #1 ) ) ;
#102 = AXIS2_PLACEMENT_3D ( 'NONE', #230, #67, #88 ) ;
#103 = DIRECTION ( 'NONE',  ( 0.0000000000000000000, 1.000000000000000000, 0.0000000000000000000 ) ) ;
#104 = ADVANCED_FACE ( 'NONE', ( #68 ), #174, .T. ) ;
#105 = CARTESIAN_POINT ( 'NONE',  ( 4.082010573974555110E-15, -1.431776572278620132E-16, 1.169134295108988697 ) ) ;
#106 = CARTESIAN_POINT ( 'NONE',  ( 8.030407079339206717E-15, 0.7500000000000006661, 2.299999999999999822 ) ) ;
#107 = AXIS2_PLACEMENT_3D ( 'NONE', #57, #72, #128 ) ;
#108 = DIRECTION ( 'NONE',  ( 0.0000000000000000000, 1.000000000000000000, 0.0000000000000000000 ) ) ;
#109 = DIRECTION ( 'NONE',  ( -3.491481338843133355E-15, 1.224646799147353207E-16, -1.000000000000000000 ) ) ;
#110 = APPROVAL_STATUS ( 'not_yet_approved' ) ;
#111 = PERSON_AND_ORGANIZATION ( #146, #74 ) ;
#112 = CC_DESIGN_DATE_AND_TIME_ASSIGNMENT ( #21, #59, ( #233 ) ) ;
#113 = LOCAL_TIME ( 7, 51, 43.00000000000000000, #90 ) ;
#114 = CALENDAR_DATE ( 2021, 24, 11 ) ;
#115 = CARTESIAN_POINT ( 'NONE',  ( 0.0000000000000000000, 0.0000000000000000000, 0.0000000000000000000 ) ) ;
#116 = AXIS2_PLACEMENT_3D ( 'NONE', #178, #48, #87 ) ;
#117 = CARTESIAN_POINT ( 'NONE',  ( 1.326762908760390423E-13, -4.653657836759941941E-15, 38.00000000000000000 ) ) ;
#118 = CARTESIAN_POINT ( 'NONE',  ( 1.983837810246228641E-14, -6.958366345301815590E-16, 5.681937314617162116 ) ) ;
#119 = CC_DESIGN_APPROVAL ( #171, ( #239 ) ) ;
#120 = FACE_OUTER_BOUND ( 'NONE', #188, .T. ) ;
#121 = CARTESIAN_POINT ( 'NONE',  ( 1.316288464743861212E-13, -4.616918432785521081E-15, 37.69999999999999574 ) ) ;
#122 = CC_DESIGN_PERSON_AND_ORGANIZATION_ASSIGNMENT ( #4, #242, ( #233 ) ) ;
#123 = CARTESIAN_POINT ( 'NONE',  ( 8.030407079339206717E-15, 0.0000000000000000000, 2.299999999999999822 ) ) ;
#124 = APPROVAL_PERSON_ORGANIZATION ( #54, #171, #197 ) ;
#125 = CARTESIAN_POINT ( 'NONE',  ( 1.316288464743861212E-13, 1.499999999999998668, 37.69999999999999574 ) ) ;
#126 = APPROVAL_STATUS ( 'not_yet_approved' ) ;
#127 = PERSON_AND_ORGANIZATION ( #146, #74 ) ;
#128 = DIRECTION ( 'NONE',  ( 1.000000000000000000, 0.0000000000000000000, 0.0000000000000000000 ) ) ;
#129 = APPLICATION_PROTOCOL_DEFINITION ( 'international standard', 'config_control_design', 1994, #220 ) ;
#130 = LOCAL_TIME ( 7, 51, 43.00000000000000000, #62 ) ;
#131 = EDGE_LOOP ( 'NONE', ( #25 ) ) ;
#132 = EDGE_CURVE ( 'NONE', #212, #212, #45, .T. ) ;
#133 = EDGE_LOOP ( 'NONE', ( #43 ) ) ;
#134 = LOCAL_TIME ( 7, 51, 43.00000000000000000, #33 ) ;
#135 = EDGE_LOOP ( 'NONE', ( #208 ) ) ;
#136 = DESIGN_CONTEXT ( 'detailed design', #236, 'design' ) ;
#137 = VERTEX_POINT ( 'NONE', #198 ) ;
#138 = CARTESIAN_POINT ( 'NONE',  ( 4.082010573974555110E-15, -1.431776572278620132E-16, 1.169134295108988697 ) ) ;
#139 = CONICAL_SURFACE ( 'NONE', #89, 0.07499999999999999722, 0.5235987755983001479 ) ;
#140 = CARTESIAN_POINT ( 'NONE',  ( 1.326762908760390423E-13, 1.199999999999998845, 38.00000000000000000 ) ) ;
#141 = EDGE_CURVE ( 'NONE', #12, #12, #50, .T. ) ;
#142 = DIRECTION ( 'NONE',  ( -3.491481338843133355E-15, 1.224646799147353207E-16, -1.000000000000000000 ) ) ;
#143 = AXIS2_PLACEMENT_3D ( 'NONE', #227, #32, #66 ) ;
#144 = ADVANCED_FACE ( 'NONE', ( #120, #159 ), #158, .T. ) ;
#145 = CALENDAR_DATE ( 2021, 24, 11 ) ;
#146 = PERSON ( 'UNSPECIFIED', 'UNSPECIFIED', 'UNSPECIFIED', ('UNSPECIFIED'), ('UNSPECIFIED'), ('UNSPECIFIED') ) ;
#147 = CONICAL_SURFACE ( 'NONE', #85, 1.200000000000003286, 0.7853981633974453924 ) ;
#148 = CC_DESIGN_PERSON_AND_ORGANIZATION_ASSIGNMENT ( #218, #163, ( #195 ) ) ;
#149 = FACE_OUTER_BOUND ( 'NONE', #5, .T. ) ;
#150 = SHAPE_DEFINITION_REPRESENTATION ( #199, #206 ) ;
#151 = CIRCLE ( 'NONE', #42, 0.7499999999999998890 ) ;
#152 = FACE_OUTER_BOUND ( 'NONE', #185, .T. ) ;
#153 = SECURITY_CLASSIFICATION_LEVEL ( 'unclassified' ) ;
#154 = PLANE ( 'NONE',  #24 ) ;
#155 = EDGE_LOOP ( 'NONE', ( #203 ) ) ;
#156 = ORIENTED_EDGE ( 'NONE', *, *, #166, .T. ) ;
#157 = ADVANCED_FACE ( 'NONE', ( #213, #231 ), #190, .F. ) ;
#158 = CYLINDRICAL_SURFACE ( 'NONE', #179, 1.500000000000000000 ) ;
#159 = FACE_OUTER_BOUND ( 'NONE', #100, .T. ) ;
#160 = DIRECTION ( 'NONE',  ( -3.491481338843133355E-15, 1.224646799147353207E-16, -1.000000000000000000 ) ) ;
#161 = DIRECTION ( 'NONE',  ( -3.491481338843133355E-15, 1.224646799147353207E-16, -1.000000000000000000 ) ) ;
#162 = APPLICATION_PROTOCOL_DEFINITION ( 'international standard', 'config_control_design', 1994, #236 ) ;
#163 = PERSON_AND_ORGANIZATION_ROLE ( 'creator' ) ;
#164 = APPROVAL_PERSON_ORGANIZATION ( #165, #15, #168 ) ;
#165 = PERSON_AND_ORGANIZATION ( #146, #74 ) ;
#166 = EDGE_CURVE ( 'NONE', #29, #29, #96, .T. ) ;
#167 = FACE_BOUND ( 'NONE', #40, .T. ) ;
#168 = APPROVAL_ROLE ( '' ) ;
#169 =( GEOMETRIC_REPRESENTATION_CONTEXT ( 3 ) GLOBAL_UNCERTAINTY_ASSIGNED_CONTEXT ( ( #39 ) ) GLOBAL_UNIT_ASSIGNED_CONTEXT ( ( #216, #73, #17 ) ) REPRESENTATION_CONTEXT ( 'NONE', 'WORKASPACE' ) );
#170 = EDGE_LOOP ( 'NONE', ( #64 ) ) ;
#171 = APPROVAL ( #126, 'UNSPECIFIED' ) ;
#172 = EDGE_LOOP ( 'NONE', ( #223 ) ) ;
#173 = AXIS2_PLACEMENT_3D ( 'NONE', #115, #184, #22 ) ;
#174 = PLANE ( 'NONE',  #116 ) ;
#175 = DIRECTION ( 'NONE',  ( -3.491481338843133355E-15, 1.224646799147353207E-16, -1.000000000000000000 ) ) ;
#176 = VERTEX_POINT ( 'NONE', #125 ) ;
#177 = DIRECTION ( 'NONE',  ( 0.0000000000000000000, 1.000000000000000000, 0.0000000000000000000 ) ) ;
#178 = CARTESIAN_POINT ( 'NONE',  ( 4.082010573974555899E-15, 5.624099184981963977E-33, 1.169134295108988919 ) ) ;
#179 = AXIS2_PLACEMENT_3D ( 'NONE', #196, #27, #83 ) ;
#180 = APPROVAL_ROLE ( '' ) ;
#181 = CALENDAR_DATE ( 2021, 24, 11 ) ;
#182 = AXIS2_PLACEMENT_3D ( 'NONE', #86, #142, #103 ) ;
#183 = ADVANCED_FACE ( 'NONE', ( #7 ), #69, .F. ) ;
#184 = DIRECTION ( 'NONE',  ( -3.491481338843133355E-15, 1.224646799147353207E-16, -1.000000000000000000 ) ) ;
#185 = EDGE_LOOP ( 'NONE', ( #80 ) ) ;
#186 = DIRECTION ( 'NONE',  ( -3.491481338843133355E-15, 1.224646799147353207E-16, -1.000000000000000000 ) ) ;
#187 = EDGE_CURVE ( 'NONE', #176, #176, #82, .T. ) ;
#188 = EDGE_LOOP ( 'NONE', ( #81 ) ) ;
#189 = DIRECTION ( 'NONE',  ( -3.491481338843133355E-15, 1.224646799147353207E-16, -1.000000000000000000 ) ) ;
#190 = TOROIDAL_SURFACE ( 'NONE', #26, 8.750000000000000000, 8.000000000000000000 ) ;
#191 = DIRECTION ( 'NONE',  ( -3.491481338843133355E-15, 1.224646799147353207E-16, -1.000000000000000000 ) ) ;
#192 = CARTESIAN_POINT ( 'NONE',  ( 1.068957861474239405E-32, 0.07499999999999999722, 3.061616997868381631E-18 ) ) ;
#193 = FACE_BOUND ( 'NONE', #101, .T. ) ;
#194 = CC_DESIGN_SECURITY_CLASSIFICATION ( #233, ( #239 ) ) ;
#195 = PRODUCT_DEFINITION ( 'UNKNOWN', '', #239, #136 ) ;
#196 = CARTESIAN_POINT ( 'NONE',  ( 0.0000000000000000000, 0.0000000000000000000, 0.0000000000000000000 ) ) ;
#197 = APPROVAL_ROLE ( '' ) ;
#198 = CARTESIAN_POINT ( 'NONE',  ( 4.082010573974555110E-15, 0.7499999999999997780, 1.169134295108988697 ) ) ;
#199 = PRODUCT_DEFINITION_SHAPE ( 'NONE', 'NONE',  #195 ) ;
#200 = EDGE_LOOP ( 'NONE', ( #156 ) ) ;
#201 = APPROVAL_STATUS ( 'not_yet_approved' ) ;
#202 = CARTESIAN_POINT ( 'NONE',  ( -1.068957861474239679E-32, 3.749399456654644447E-34, -3.061616997868383172E-18 ) ) ;
#203 = ORIENTED_EDGE ( 'NONE', *, *, #240, .F. ) ;
#204 = APPROVAL_DATE_TIME ( #93, #15 ) ;
#205 = PRODUCT_RELATED_PRODUCT_CATEGORY ( 'detail', '', ( #98 ) ) ;
#206 = ADVANCED_BREP_SHAPE_REPRESENTATION ( '976364', ( #18, #92, #107 ), #169 ) ;
#207 = AXIS2_PLACEMENT_3D ( 'NONE', #121, #109, #108 ) ;
#208 = ORIENTED_EDGE ( 'NONE', *, *, #141, .T. ) ;
#209 = CARTESIAN_POINT ( 'NONE',  ( -2.137915722948479358E-32, 7.498798913309288894E-34, -6.123233995736766344E-18 ) ) ;
#210 = FACE_OUTER_BOUND ( 'NONE', #3, .T. ) ;
#211 = EDGE_CURVE ( 'NONE', #13, #13, #11, .T. ) ;
#212 = VERTEX_POINT ( 'NONE', #65 ) ;
#213 = FACE_OUTER_BOUND ( 'NONE', #131, .T. ) ;
#214 = PLANE ( 'NONE',  #102 ) ;
#215 = APPROVAL_PERSON_ORGANIZATION ( #111, #34, #180 ) ;
#216 =( LENGTH_UNIT ( ) NAMED_UNIT ( * ) SI_UNIT ( .MILLI., .METRE. ) );
#217 = DATE_AND_TIME ( #145, #134 ) ;
#218 = PERSON_AND_ORGANIZATION ( #146, #74 ) ;
#219 = CIRCLE ( 'NONE', #20, 1.200000000000003286 ) ;
#220 = APPLICATION_CONTEXT ( 'configuration controlled 3d designs of mechanical parts and assemblies' ) ;
#221 = DIRECTION ( 'NONE',  ( -4.275831445896959482E-31, -1.000000000000000000, -1.224646799147352961E-16 ) ) ;
#222 = DIRECTION ( 'NONE',  ( -4.275831445896958607E-31, -1.000000000000000000, -1.224646799147353207E-16 ) ) ;
#223 = ORIENTED_EDGE ( 'NONE', *, *, #211, .T. ) ;
#224 = AXIS2_PLACEMENT_3D ( 'NONE', #209, #84, #10 ) ;
#225 = CARTESIAN_POINT ( 'NONE',  ( 4.082010573974555110E-15, 0.7499999999999997780, 1.169134295108988697 ) ) ;
#226 = ADVANCED_FACE ( 'NONE', ( #46 ), #214, .F. ) ;
#227 = CARTESIAN_POINT ( 'NONE',  ( 4.082010573974555899E-15, 5.624099184981963977E-33, 1.169134295108988919 ) ) ;
#228 = ADVANCED_FACE ( 'NONE', ( #210, #193 ), #147, .T. ) ;
#229 = VERTEX_POINT ( 'NONE', #140 ) ;
#230 = CARTESIAN_POINT ( 'NONE',  ( 1.326762908760390423E-13, 8.998558695971103225E-33, 38.00000000000000000 ) ) ;
#231 = FACE_OUTER_BOUND ( 'NONE', #170, .T. ) ;
#232 = MECHANICAL_CONTEXT ( 'NONE', #220, 'mechanical' ) ;
#233 = SECURITY_CLASSIFICATION ( '', '', #153 ) ;
#234 = CC_DESIGN_APPROVAL ( #34, ( #195 ) ) ;
#235 = DATE_AND_TIME ( #181, #78 ) ;
#236 = APPLICATION_CONTEXT ( 'configuration controlled 3d designs of mechanical parts and assemblies' ) ;
#237 = APPROVAL_DATE_TIME ( #91, #34 ) ;
#238 = DATE_TIME_ROLE ( 'creation_date' ) ;
#239 = PRODUCT_DEFINITION_FORMATION_WITH_SPECIFIED_SOURCE ( 'ANY', '', #98, .NOT_KNOWN. ) ;
#240 = EDGE_CURVE ( 'NONE', #137, #137, #151, .T. ) ;
#241 = COORDINATED_UNIVERSAL_TIME_OFFSET ( 1, 0, .AHEAD. ) ;
#242 = PERSON_AND_ORGANIZATION_ROLE ( 'classification_officer' ) ;
#243 = CARTESIAN_POINT ( 'NONE',  ( -2.137915722948479358E-32, 7.498798913309288894E-34, -6.123233995736766344E-18 ) ) ;
ENDSEC;
END-ISO-10303-21;
