ISO-10303-21;
HEADER;
FILE_DESCRIPTION (( 'STEP AP203' ),
    '1' );
FILE_NAME ('976363.step',
    '2021-11-24T06:51:42',
    ( '' ),
    ( '' ),
    'SwSTEP 2.0',
    'SolidWorks 2019',
    '' );
FILE_SCHEMA (( 'CONFIG_CONTROL_DESIGN' ));
ENDSEC;

DATA;
#1 = DATE_AND_TIME ( #19, #207 ) ;
#2 = MANIFOLD_SOLID_BREP ( 'Corps-Déplacer/Copier1[1]', #31 ) ;
#3 = MANIFOLD_SOLID_BREP ( 'Corps-Déplacer/Copier1[2]', #160 ) ;
#4 = EDGE_LOOP ( 'NONE', ( #92 ) ) ;
#5 = CC_DESIGN_SECURITY_CLASSIFICATION ( #6, ( #21 ) ) ;
#6 = SECURITY_CLASSIFICATION ( '', '', #219 ) ;
#7 = CIRCLE ( 'NONE', #150, 0.7500000000000009992 ) ;
#8 = FACE_OUTER_BOUND ( 'NONE', #192, .T. ) ;
#9 = CARTESIAN_POINT ( 'NONE',  ( 8.030407079339206717E-15, -2.816687638038912056E-16, 2.299999999999999822 ) ) ;
#10 = DATE_AND_TIME ( #183, #217 ) ;
#11 = DIRECTION ( 'NONE',  ( 0.0000000000000000000, 1.000000000000000000, 0.0000000000000000000 ) ) ;
#12 = PERSON_AND_ORGANIZATION ( #117, #53 ) ;
#13 = CARTESIAN_POINT ( 'NONE',  ( 1.983837810246228641E-14, -6.958366345301815590E-16, 5.681937314617162116 ) ) ;
#14 = AXIS2_PLACEMENT_3D ( 'NONE', #122, #125, #204 ) ;
#15 = COORDINATED_UNIVERSAL_TIME_OFFSET ( 1, 0, .AHEAD. ) ;
#16 = PLANE ( 'NONE',  #119 ) ;
#17 = EDGE_CURVE ( 'NONE', #172, #172, #155, .T. ) ;
#18 = ORIENTED_EDGE ( 'NONE', *, *, #232, .T. ) ;
#19 = CALENDAR_DATE ( 2021, 24, 11 ) ;
#20 = EDGE_LOOP ( 'NONE', ( #190 ) ) ;
#21 = PRODUCT_DEFINITION_FORMATION_WITH_SPECIFIED_SOURCE ( 'ANY', '', #136, .NOT_KNOWN. ) ;
#22 = DIRECTION ( 'NONE',  ( -4.275831445896958607E-31, -1.000000000000000000, -1.224646799147353207E-16 ) ) ;
#23 = EDGE_LOOP ( 'NONE', ( #91 ) ) ;
#24 = AXIS2_PLACEMENT_3D ( 'NONE', #70, #67, #109 ) ;
#25 = CYLINDRICAL_SURFACE ( 'NONE', #170, 1.500000000000000000 ) ;
#26 = TOROIDAL_SURFACE ( 'NONE', #151, 8.750000000000000000, 8.000000000000000000 ) ;
#27 = ADVANCED_BREP_SHAPE_REPRESENTATION ( '976363', ( #2, #3, #210 ), #66 ) ;
#28 = ADVANCED_FACE ( 'NONE', ( #197, #209 ), #25, .T. ) ;
#29 = VERTEX_POINT ( 'NONE', #61 ) ;
#30 = CARTESIAN_POINT ( 'NONE',  ( 8.030407079339206717E-15, 0.0000000000000000000, 2.299999999999999822 ) ) ;
#31 = CLOSED_SHELL ( 'NONE', ( #178, #211, #55, #28, #59, #166 ) ) ;
#32 = PERSON_AND_ORGANIZATION ( #117, #53 ) ;
#33 = PRODUCT_RELATED_PRODUCT_CATEGORY ( 'detail', '', ( #136 ) ) ;
#34 = CARTESIAN_POINT ( 'NONE',  ( -8.551662891793918527E-33, 2.999519565323715729E-34, -2.449293598294706769E-18 ) ) ;
#35 = APPLICATION_CONTEXT ( 'configuration controlled 3d designs of mechanical parts and assemblies' ) ;
#36 = PERSON_AND_ORGANIZATION ( #117, #53 ) ;
#37 = DIRECTION ( 'NONE',  ( -3.491481338843133355E-15, 1.224646799147353207E-16, -1.000000000000000000 ) ) ;
#38 = APPROVAL_ROLE ( '' ) ;
#39 = DIRECTION ( 'NONE',  ( 3.491481338843133355E-15, -1.224646799147353207E-16, 1.000000000000000000 ) ) ;
#40 = LOCAL_TIME ( 7, 51, 42.00000000000000000, #221 ) ;
#41 = APPLICATION_CONTEXT ( 'configuration controlled 3d designs of mechanical parts and assemblies' ) ;
#42 = CARTESIAN_POINT ( 'NONE',  ( 0.0000000000000000000, 0.0000000000000000000, 0.0000000000000000000 ) ) ;
#43 = EDGE_CURVE ( 'NONE', #96, #96, #196, .T. ) ;
#44 = CIRCLE ( 'NONE', #94, 1.499999999999996669 ) ;
#45 = CALENDAR_DATE ( 2021, 24, 11 ) ;
#46 = DIRECTION ( 'NONE',  ( -3.491481338843133355E-15, 1.224646799147353207E-16, -1.000000000000000000 ) ) ;
#47 = AXIS2_PLACEMENT_3D ( 'NONE', #241, #84, #163 ) ;
#48 = DIRECTION ( 'NONE',  ( -3.491481338843133355E-15, 1.224646799147353207E-16, -1.000000000000000000 ) ) ;
#49 = APPROVAL_STATUS ( 'not_yet_approved' ) ;
#50 = CARTESIAN_POINT ( 'NONE',  ( 1.326762908760390423E-13, 8.998558695971103225E-33, 38.00000000000000000 ) ) ;
#51 = CARTESIAN_POINT ( 'NONE',  ( 0.0000000000000000000, 0.0000000000000000000, 0.0000000000000000000 ) ) ;
#52 = CARTESIAN_POINT ( 'NONE',  ( 0.0000000000000000000, 0.0000000000000000000, 0.0000000000000000000 ) ) ;
#53 = ORGANIZATION ( 'UNSPECIFIED', 'UNSPECIFIED', '' ) ;
#54 = FACE_OUTER_BOUND ( 'NONE', #97, .T. ) ;
#55 = ADVANCED_FACE ( 'NONE', ( #8, #82 ), #26, .F. ) ;
#56 = CARTESIAN_POINT ( 'NONE',  ( 8.030407079339206717E-15, 0.7500000000000006661, 2.299999999999999822 ) ) ;
#57 = AXIS2_PLACEMENT_3D ( 'NONE', #52, #129, #78 ) ;
#58 = CARTESIAN_POINT ( 'NONE',  ( 4.233196150788427960E-15, 0.7499999999999997780, 1.212435565298210838 ) ) ;
#59 = ADVANCED_FACE ( 'NONE', ( #104, #182 ), #243, .T. ) ;
#60 = AXIS2_PLACEMENT_3D ( 'NONE', #141, #48, #11 ) ;
#61 = CARTESIAN_POINT ( 'NONE',  ( 1.316288464743861212E-13, 1.499999999999998668, 37.69999999999999574 ) ) ;
#62 = APPROVAL_ROLE ( '' ) ;
#63 = EDGE_CURVE ( 'NONE', #227, #227, #7, .T. ) ;
#64 = APPROVAL_STATUS ( 'not_yet_approved' ) ;
#65 = DIRECTION ( 'NONE',  ( 0.0000000000000000000, 1.000000000000000000, 0.0000000000000000000 ) ) ;
#66 =( GEOMETRIC_REPRESENTATION_CONTEXT ( 3 ) GLOBAL_UNCERTAINTY_ASSIGNED_CONTEXT ( ( #77 ) ) GLOBAL_UNIT_ASSIGNED_CONTEXT ( ( #161, #147, #107 ) ) REPRESENTATION_CONTEXT ( 'NONE', 'WORKASPACE' ) );
#67 = DIRECTION ( 'NONE',  ( 3.491481338843133355E-15, -1.224646799147353207E-16, 1.000000000000000000 ) ) ;
#68 = DATE_AND_TIME ( #87, #40 ) ;
#69 = FACE_OUTER_BOUND ( 'NONE', #111, .T. ) ;
#70 = CARTESIAN_POINT ( 'NONE',  ( 4.233196150788427960E-15, 5.624099184981963977E-33, 1.212435565298210838 ) ) ;
#71 = APPROVAL_PERSON_ORGANIZATION ( #234, #180, #62 ) ;
#72 = AXIS2_PLACEMENT_3D ( 'NONE', #152, #138, #116 ) ;
#73 = ORIENTED_EDGE ( 'NONE', *, *, #232, .F. ) ;
#74 = CC_DESIGN_PERSON_AND_ORGANIZATION_ASSIGNMENT ( #12, #186, ( #21 ) ) ;
#75 = CARTESIAN_POINT ( 'NONE',  ( 4.233196150788427960E-15, 0.7499999999999997780, 1.212435565298210838 ) ) ;
#76 = ORIENTED_EDGE ( 'NONE', *, *, #43, .T. ) ;
#77 = UNCERTAINTY_MEASURE_WITH_UNIT (LENGTH_MEASURE( 1.000000000000000082E-05 ), #161, 'distance_accuracy_value', 'NONE');
#78 = DIRECTION ( 'NONE',  ( 4.275831445896958607E-31, 1.000000000000000000, 1.224646799147353207E-16 ) ) ;
#79 = SHAPE_DEFINITION_REPRESENTATION ( #225, #27 ) ;
#80 = PERSON_AND_ORGANIZATION ( #117, #53 ) ;
#81 = AXIS2_PLACEMENT_3D ( 'NONE', #175, #99, #229 ) ;
#82 = FACE_OUTER_BOUND ( 'NONE', #112, .T. ) ;
#83 = CARTESIAN_POINT ( 'NONE',  ( 4.275831445896955842E-33, 0.05000000000000000278, 1.224646799147352614E-18 ) ) ;
#84 = DIRECTION ( 'NONE',  ( -3.491481338843133355E-15, 1.224646799147353207E-16, -1.000000000000000000 ) ) ;
#85 = PERSON_AND_ORGANIZATION ( #117, #53 ) ;
#86 = FACE_OUTER_BOUND ( 'NONE', #242, .T. ) ;
#87 = CALENDAR_DATE ( 2021, 24, 11 ) ;
#88 = DIRECTION ( 'NONE',  ( -3.491481338843133355E-15, 1.224646799147353207E-16, -1.000000000000000000 ) ) ;
#89 = PERSON_AND_ORGANIZATION ( #117, #53 ) ;
#90 = FACE_OUTER_BOUND ( 'NONE', #115, .T. ) ;
#91 = ORIENTED_EDGE ( 'NONE', *, *, #195, .F. ) ;
#92 = ORIENTED_EDGE ( 'NONE', *, *, #118, .F. ) ;
#93 = AXIS2_PLACEMENT_3D ( 'NONE', #50, #187, #165 ) ;
#94 = AXIS2_PLACEMENT_3D ( 'NONE', #13, #88, #168 ) ;
#95 = ORIENTED_EDGE ( 'NONE', *, *, #17, .T. ) ;
#96 = VERTEX_POINT ( 'NONE', #75 ) ;
#97 = EDGE_LOOP ( 'NONE', ( #76 ) ) ;
#98 = EDGE_CURVE ( 'NONE', #208, #208, #181, .T. ) ;
#99 = DIRECTION ( 'NONE',  ( -3.491481338843133355E-15, 1.224646799147353207E-16, -1.000000000000000000 ) ) ;
#100 = COORDINATED_UNIVERSAL_TIME_OFFSET ( 1, 0, .AHEAD. ) ;
#101 = DIRECTION ( 'NONE',  ( -4.275831445896958607E-31, -1.000000000000000000, -1.224646799147353207E-16 ) ) ;
#102 = CC_DESIGN_APPROVAL ( #180, ( #213 ) ) ;
#103 = AXIS2_PLACEMENT_3D ( 'NONE', #235, #37, #65 ) ;
#104 = FACE_OUTER_BOUND ( 'NONE', #4, .T. ) ;
#105 = PERSON_AND_ORGANIZATION_ROLE ( 'creator' ) ;
#106 = PLANE ( 'NONE',  #93 ) ;
#107 =( NAMED_UNIT ( * ) SI_UNIT ( $, .STERADIAN. ) SOLID_ANGLE_UNIT ( ) );
#108 = CC_DESIGN_PERSON_AND_ORGANIZATION_ASSIGNMENT ( #236, #145, ( #6 ) ) ;
#109 = DIRECTION ( 'NONE',  ( -4.275831445896958607E-31, -1.000000000000000000, -1.224646799147353207E-16 ) ) ;
#110 = DATE_TIME_ROLE ( 'classification_date' ) ;
#111 = EDGE_LOOP ( 'NONE', ( #173 ) ) ;
#112 = EDGE_LOOP ( 'NONE', ( #194 ) ) ;
#113 = ORIENTED_EDGE ( 'NONE', *, *, #43, .F. ) ;
#114 = CC_DESIGN_APPROVAL ( #153, ( #21 ) ) ;
#115 = EDGE_LOOP ( 'NONE', ( #18 ) ) ;
#116 = DIRECTION ( 'NONE',  ( 0.0000000000000000000, 1.000000000000000000, 0.0000000000000000000 ) ) ;
#117 = PERSON ( 'UNSPECIFIED', 'UNSPECIFIED', 'UNSPECIFIED', ('UNSPECIFIED'), ('UNSPECIFIED'), ('UNSPECIFIED') ) ;
#118 = EDGE_CURVE ( 'NONE', #29, #29, #199, .T. ) ;
#119 = AXIS2_PLACEMENT_3D ( 'NONE', #216, #223, #101 ) ;
#120 = COORDINATED_UNIVERSAL_TIME_OFFSET ( 1, 0, .AHEAD. ) ;
#121 = APPLICATION_PROTOCOL_DEFINITION ( 'international standard', 'config_control_design', 1994, #35 ) ;
#122 = CARTESIAN_POINT ( 'NONE',  ( 4.233196150788427960E-15, -1.484805334214865441E-16, 1.212435565298210838 ) ) ;
#123 = DIRECTION ( 'NONE',  ( 0.0000000000000000000, 0.0000000000000000000, 1.000000000000000000 ) ) ;
#124 = LOCAL_TIME ( 7, 51, 42.00000000000000000, #100 ) ;
#125 = DIRECTION ( 'NONE',  ( -3.491481338843133355E-15, 1.224646799147353207E-16, -1.000000000000000000 ) ) ;
#126 = APPLICATION_PROTOCOL_DEFINITION ( 'international standard', 'config_control_design', 1994, #41 ) ;
#127 = CC_DESIGN_DATE_AND_TIME_ASSIGNMENT ( #143, #215, ( #213 ) ) ;
#128 = DIRECTION ( 'NONE',  ( 1.000000000000000000, 0.0000000000000000000, 0.0000000000000000000 ) ) ;
#129 = DIRECTION ( 'NONE',  ( -3.491481338843133355E-15, 1.224646799147353207E-16, -1.000000000000000000 ) ) ;
#130 = CC_DESIGN_DATE_AND_TIME_ASSIGNMENT ( #68, #110, ( #6 ) ) ;
#131 = CARTESIAN_POINT ( 'NONE',  ( 1.983837810246228641E-14, 1.499999999999996225, 5.681937314617162116 ) ) ;
#132 = ORIENTED_EDGE ( 'NONE', *, *, #63, .T. ) ;
#133 = DESIGN_CONTEXT ( 'detailed design', #41, 'design' ) ;
#134 = CARTESIAN_POINT ( 'NONE',  ( -1.710332578358783705E-32, 5.999039130647431458E-34, -4.898587196589413537E-18 ) ) ;
#135 = CC_DESIGN_APPROVAL ( #157, ( #6 ) ) ;
#136 = PRODUCT ( '976363', '976363', '', ( #203 ) ) ;
#137 = DIRECTION ( 'NONE',  ( -3.491481338843133355E-15, 1.224646799147353207E-16, -1.000000000000000000 ) ) ;
#138 = DIRECTION ( 'NONE',  ( -3.491481338843133355E-15, 1.224646799147353207E-16, -1.000000000000000000 ) ) ;
#139 = CARTESIAN_POINT ( 'NONE',  ( 1.326762908760390423E-13, 1.199999999999998845, 38.00000000000000000 ) ) ;
#140 = DATE_AND_TIME ( #200, #228 ) ;
#141 = CARTESIAN_POINT ( 'NONE',  ( 1.326762908760390423E-13, -4.653657836759941941E-15, 38.00000000000000000 ) ) ;
#142 = ADVANCED_FACE ( 'NONE', ( #144 ), #16, .T. ) ;
#143 = DATE_AND_TIME ( #45, #124 ) ;
#144 = FACE_OUTER_BOUND ( 'NONE', #193, .T. ) ;
#145 = PERSON_AND_ORGANIZATION_ROLE ( 'classification_officer' ) ;
#146 = PLANE ( 'NONE',  #24 ) ;
#147 =( NAMED_UNIT ( * ) PLANE_ANGLE_UNIT ( ) SI_UNIT ( $, .RADIAN. ) );
#148 = CYLINDRICAL_SURFACE ( 'NONE', #57, 0.7500000000000004441 ) ;
#149 = ADVANCED_FACE ( 'NONE', ( #90 ), #202, .F. ) ;
#150 = AXIS2_PLACEMENT_3D ( 'NONE', #9, #46, #220 ) ;
#151 = AXIS2_PLACEMENT_3D ( 'NONE', #30, #169, #162 ) ;
#152 = CARTESIAN_POINT ( 'NONE',  ( 4.233196150788427960E-15, -1.484805334214865441E-16, 1.212435565298210838 ) ) ;
#153 = APPROVAL ( #49, 'UNSPECIFIED' ) ;
#154 = ORIENTED_EDGE ( 'NONE', *, *, #98, .F. ) ;
#155 = CIRCLE ( 'NONE', #72, 0.7499999999999998890 ) ;
#156 = EDGE_LOOP ( 'NONE', ( #132 ) ) ;
#157 = APPROVAL ( #233, 'UNSPECIFIED' ) ;
#158 = FACE_BOUND ( 'NONE', #226, .T. ) ;
#159 = AXIS2_PLACEMENT_3D ( 'NONE', #34, #185, #222 ) ;
#160 = CLOSED_SHELL ( 'NONE', ( #149, #240, #142 ) ) ;
#161 =( LENGTH_UNIT ( ) NAMED_UNIT ( * ) SI_UNIT ( .MILLI., .METRE. ) );
#162 = DIRECTION ( 'NONE',  ( 4.355100981429076768E-31, 1.000000000000000000, 1.224646799147353207E-16 ) ) ;
#163 = DIRECTION ( 'NONE',  ( 0.0000000000000000000, 1.000000000000000000, 0.0000000000000000000 ) ) ;
#164 = PERSON_AND_ORGANIZATION_ROLE ( 'design_supplier' ) ;
#165 = DIRECTION ( 'NONE',  ( 4.275831445896958607E-31, 1.000000000000000000, 1.224646799147353207E-16 ) ) ;
#166 = ADVANCED_FACE ( 'NONE', ( #86 ), #106, .F. ) ;
#167 = CIRCLE ( 'NONE', #81, 0.05000000000000000278 ) ;
#168 = DIRECTION ( 'NONE',  ( 0.0000000000000000000, 1.000000000000000000, 0.0000000000000000000 ) ) ;
#169 = DIRECTION ( 'NONE',  ( -3.491481338843133355E-15, 1.224646799147353207E-16, -1.000000000000000000 ) ) ;
#170 = AXIS2_PLACEMENT_3D ( 'NONE', #42, #137, #218 ) ;
#171 = EDGE_LOOP ( 'NONE', ( #224 ) ) ;
#172 = VERTEX_POINT ( 'NONE', #58 ) ;
#173 = ORIENTED_EDGE ( 'NONE', *, *, #17, .F. ) ;
#174 = CC_DESIGN_PERSON_AND_ORGANIZATION_ASSIGNMENT ( #85, #164, ( #21 ) ) ;
#175 = CARTESIAN_POINT ( 'NONE',  ( -1.710332578358783705E-32, 5.999039130647431458E-34, -4.898587196589413537E-18 ) ) ;
#176 = APPROVAL_PERSON_ORGANIZATION ( #89, #157, #212 ) ;
#177 = VERTEX_POINT ( 'NONE', #83 ) ;
#178 = ADVANCED_FACE ( 'NONE', ( #237 ), #146, .F. ) ;
#179 = PERSON_AND_ORGANIZATION_ROLE ( 'design_owner' ) ;
#180 = APPROVAL ( #64, 'UNSPECIFIED' ) ;
#181 = CIRCLE ( 'NONE', #47, 1.200000000000003286 ) ;
#182 = FACE_BOUND ( 'NONE', #171, .T. ) ;
#183 = CALENDAR_DATE ( 2021, 24, 11 ) ;
#184 = APPROVAL_DATE_TIME ( #10, #153 ) ;
#185 = DIRECTION ( 'NONE',  ( 3.491481338843133355E-15, -1.224646799147353207E-16, 1.000000000000000000 ) ) ;
#186 = PERSON_AND_ORGANIZATION_ROLE ( 'creator' ) ;
#187 = DIRECTION ( 'NONE',  ( -3.491481338843133355E-15, 1.224646799147353207E-16, -1.000000000000000000 ) ) ;
#188 = EDGE_LOOP ( 'NONE', ( #95 ) ) ;
#189 = APPROVAL_DATE_TIME ( #1, #157 ) ;
#190 = ORIENTED_EDGE ( 'NONE', *, *, #118, .T. ) ;
#191 = APPROVAL_PERSON_ORGANIZATION ( #36, #153, #38 ) ;
#192 = EDGE_LOOP ( 'NONE', ( #206 ) ) ;
#193 = EDGE_LOOP ( 'NONE', ( #113 ) ) ;
#194 = ORIENTED_EDGE ( 'NONE', *, *, #63, .F. ) ;
#195 = EDGE_CURVE ( 'NONE', #231, #231, #44, .T. ) ;
#196 = CIRCLE ( 'NONE', #14, 0.7499999999999998890 ) ;
#197 = FACE_OUTER_BOUND ( 'NONE', #23, .T. ) ;
#198 = CC_DESIGN_PERSON_AND_ORGANIZATION_ASSIGNMENT ( #80, #179, ( #136 ) ) ;
#199 = CIRCLE ( 'NONE', #103, 1.500000000000003331 ) ;
#200 = CALENDAR_DATE ( 2021, 24, 11 ) ;
#201 = CONICAL_SURFACE ( 'NONE', #230, 0.05000000000000000278, 0.5235987755983000369 ) ;
#202 = PLANE ( 'NONE',  #159 ) ;
#203 = MECHANICAL_CONTEXT ( 'NONE', #35, 'mechanical' ) ;
#204 = DIRECTION ( 'NONE',  ( 0.0000000000000000000, 1.000000000000000000, 0.0000000000000000000 ) ) ;
#205 = COORDINATED_UNIVERSAL_TIME_OFFSET ( 1, 0, .AHEAD. ) ;
#206 = ORIENTED_EDGE ( 'NONE', *, *, #195, .T. ) ;
#207 = LOCAL_TIME ( 7, 51, 42.00000000000000000, #120 ) ;
#208 = VERTEX_POINT ( 'NONE', #139 ) ;
#209 = FACE_OUTER_BOUND ( 'NONE', #20, .T. ) ;
#210 = AXIS2_PLACEMENT_3D ( 'NONE', #51, #123, #128 ) ;
#211 = ADVANCED_FACE ( 'NONE', ( #239, #69 ), #148, .T. ) ;
#212 = APPROVAL_ROLE ( '' ) ;
#213 = PRODUCT_DEFINITION ( 'UNKNOWN', '', #21, #133 ) ;
#214 = APPROVAL_DATE_TIME ( #140, #180 ) ;
#215 = DATE_TIME_ROLE ( 'creation_date' ) ;
#216 = CARTESIAN_POINT ( 'NONE',  ( 4.233196150788427960E-15, 5.624099184981963977E-33, 1.212435565298210838 ) ) ;
#217 = LOCAL_TIME ( 7, 51, 42.00000000000000000, #15 ) ;
#218 = DIRECTION ( 'NONE',  ( 4.275831445896959482E-31, 1.000000000000000000, 1.224646799147353207E-16 ) ) ;
#219 = SECURITY_CLASSIFICATION_LEVEL ( 'unclassified' ) ;
#220 = DIRECTION ( 'NONE',  ( 0.0000000000000000000, 1.000000000000000000, 0.0000000000000000000 ) ) ;
#221 = COORDINATED_UNIVERSAL_TIME_OFFSET ( 1, 0, .AHEAD. ) ;
#222 = DIRECTION ( 'NONE',  ( -4.275831445896958607E-31, -1.000000000000000000, -1.224646799147353207E-16 ) ) ;
#223 = DIRECTION ( 'NONE',  ( 3.491481338843133355E-15, -1.224646799147353207E-16, 1.000000000000000000 ) ) ;
#224 = ORIENTED_EDGE ( 'NONE', *, *, #98, .T. ) ;
#225 = PRODUCT_DEFINITION_SHAPE ( 'NONE', 'NONE',  #213 ) ;
#226 = EDGE_LOOP ( 'NONE', ( #73 ) ) ;
#227 = VERTEX_POINT ( 'NONE', #56 ) ;
#228 = LOCAL_TIME ( 7, 51, 42.00000000000000000, #205 ) ;
#229 = DIRECTION ( 'NONE',  ( 4.275831445896958607E-31, 1.000000000000000000, 1.224646799147353207E-16 ) ) ;
#230 = AXIS2_PLACEMENT_3D ( 'NONE', #134, #39, #22 ) ;
#231 = VERTEX_POINT ( 'NONE', #131 ) ;
#232 = EDGE_CURVE ( 'NONE', #177, #177, #167, .T. ) ;
#233 = APPROVAL_STATUS ( 'not_yet_approved' ) ;
#234 = PERSON_AND_ORGANIZATION ( #117, #53 ) ;
#235 = CARTESIAN_POINT ( 'NONE',  ( 1.316288464743861212E-13, -4.616918432785521081E-15, 37.69999999999999574 ) ) ;
#236 = PERSON_AND_ORGANIZATION ( #117, #53 ) ;
#237 = FACE_OUTER_BOUND ( 'NONE', #188, .T. ) ;
#238 = CC_DESIGN_PERSON_AND_ORGANIZATION_ASSIGNMENT ( #32, #105, ( #213 ) ) ;
#239 = FACE_OUTER_BOUND ( 'NONE', #156, .T. ) ;
#240 = ADVANCED_FACE ( 'NONE', ( #54, #158 ), #201, .T. ) ;
#241 = CARTESIAN_POINT ( 'NONE',  ( 1.326762908760390423E-13, -4.653657836759941941E-15, 38.00000000000000000 ) ) ;
#242 = EDGE_LOOP ( 'NONE', ( #154 ) ) ;
#243 = CONICAL_SURFACE ( 'NONE', #60, 1.200000000000003286, 0.7853981633974453924 ) ;
ENDSEC;
END-ISO-10303-21;
