ISO-10303-21;
HEADER;
FILE_DESCRIPTION (( 'STEP AP203' ),
    '1' );
FILE_NAME ('976362.step',
    '2021-11-24T06:51:42',
    ( '' ),
    ( '' ),
    'SwSTEP 2.0',
    'SolidWorks 2019',
    '' );
FILE_SCHEMA (( 'CONFIG_CONTROL_DESIGN' ));
ENDSEC;

DATA;
#1 = VERTEX_POINT ( 'NONE', #98 ) ;
#2 = PRODUCT ( '976362', '976362', '', ( #168 ) ) ;
#3 = VERTEX_POINT ( 'NONE', #137 ) ;
#4 = DATE_AND_TIME ( #151, #130 ) ;
#5 = DATE_TIME_ROLE ( 'creation_date' ) ;
#6 = DATE_AND_TIME ( #103, #139 ) ;
#7 = EDGE_CURVE ( 'NONE', #209, #209, #200, .T. ) ;
#8 = EDGE_LOOP ( 'NONE', ( #68 ) ) ;
#9 = PRODUCT_DEFINITION ( 'UNKNOWN', '', #12, #79 ) ;
#10 = ORIENTED_EDGE ( 'NONE', *, *, #65, .F. ) ;
#11 = CARTESIAN_POINT ( 'NONE',  ( 1.316288464743861212E-13, -4.616918432785521081E-15, 37.69999999999999574 ) ) ;
#12 = PRODUCT_DEFINITION_FORMATION_WITH_SPECIFIED_SOURCE ( 'ANY', '', #2, .NOT_KNOWN. ) ;
#13 = APPLICATION_CONTEXT ( 'configuration controlled 3d designs of mechanical parts and assemblies' ) ;
#14 = DIRECTION ( 'NONE',  ( 4.275831445896958607E-31, 1.000000000000000000, 1.224646799147353207E-16 ) ) ;
#15 = DIRECTION ( 'NONE',  ( 4.355100981429076768E-31, 1.000000000000000000, 1.224646799147353207E-16 ) ) ;
#16 = CARTESIAN_POINT ( 'NONE',  ( 8.030407079339206717E-15, 0.0000000000000000000, 2.299999999999999822 ) ) ;
#17 = FACE_OUTER_BOUND ( 'NONE', #25, .T. ) ;
#18 = PRODUCT_RELATED_PRODUCT_CATEGORY ( 'detail', '', ( #2 ) ) ;
#19 = CARTESIAN_POINT ( 'NONE',  ( 6.413747168845440264E-33, 0.04000000000000000083, 1.836970198721030365E-18 ) ) ;
#20 = AXIS2_PLACEMENT_3D ( 'NONE', #57, #129, #161 ) ;
#21 = APPROVAL_STATUS ( 'not_yet_approved' ) ;
#22 = CARTESIAN_POINT ( 'NONE',  ( 1.326762908760390423E-13, 8.998558695971103225E-33, 38.00000000000000000 ) ) ;
#23 = CARTESIAN_POINT ( 'NONE',  ( 1.316288464743861212E-13, 1.499999999999998668, 37.69999999999999574 ) ) ;
#24 = PERSON_AND_ORGANIZATION_ROLE ( 'design_supplier' ) ;
#25 = EDGE_LOOP ( 'NONE', ( #10 ) ) ;
#26 = ORIENTED_EDGE ( 'NONE', *, *, #96, .T. ) ;
#27 = ADVANCED_FACE ( 'NONE', ( #218 ), #147, .T. ) ;
#28 = ORIENTED_EDGE ( 'NONE', *, *, #136, .T. ) ;
#29 = DIRECTION ( 'NONE',  ( 3.491481338843133355E-15, -1.224646799147353207E-16, 1.000000000000000000 ) ) ;
#30 = DIRECTION ( 'NONE',  ( -3.491481338843133355E-15, 1.224646799147353207E-16, -1.000000000000000000 ) ) ;
#31 = CONICAL_SURFACE ( 'NONE', #167, 1.200000000000003286, 0.7853981633974453924 ) ;
#32 = DIRECTION ( 'NONE',  ( 0.0000000000000000000, 1.000000000000000000, 0.0000000000000000000 ) ) ;
#33 = DIRECTION ( 'NONE',  ( -3.491481338843133355E-15, 1.224646799147353207E-16, -1.000000000000000000 ) ) ;
#34 = DIRECTION ( 'NONE',  ( 0.0000000000000000000, 1.000000000000000000, 0.0000000000000000000 ) ) ;
#35 = AXIS2_PLACEMENT_3D ( 'NONE', #143, #30, #55 ) ;
#36 = APPLICATION_PROTOCOL_DEFINITION ( 'international standard', 'config_control_design', 1994, #120 ) ;
#37 = CALENDAR_DATE ( 2021, 24, 11 ) ;
#38 = VERTEX_POINT ( 'NONE', #23 ) ;
#39 =( NAMED_UNIT ( * ) SI_UNIT ( $, .STERADIAN. ) SOLID_ANGLE_UNIT ( ) );
#40 = AXIS2_PLACEMENT_3D ( 'NONE', #108, #176, #203 ) ;
#41 = ADVANCED_FACE ( 'NONE', ( #234, #146 ), #242, .F. ) ;
#42 = CALENDAR_DATE ( 2021, 24, 11 ) ;
#43 = APPROVAL_STATUS ( 'not_yet_approved' ) ;
#44 = APPROVAL_DATE_TIME ( #6, #236 ) ;
#45 = ADVANCED_FACE ( 'NONE', ( #78, #93 ), #243, .T. ) ;
#46 = CLOSED_SHELL ( 'NONE', ( #61, #45, #27 ) ) ;
#47 = CIRCLE ( 'NONE', #125, 1.500000000000003331 ) ;
#48 = EDGE_LOOP ( 'NONE', ( #107 ) ) ;
#49 = CC_DESIGN_PERSON_AND_ORGANIZATION_ASSIGNMENT ( #212, #114, ( #154 ) ) ;
#50 = PLANE ( 'NONE',  #145 ) ;
#51 = CARTESIAN_POINT ( 'NONE',  ( 0.0000000000000000000, 0.0000000000000000000, 0.0000000000000000000 ) ) ;
#52 = CC_DESIGN_APPROVAL ( #160, ( #154 ) ) ;
#53 = DIRECTION ( 'NONE',  ( 3.491481338843133355E-15, -1.224646799147353207E-16, 1.000000000000000000 ) ) ;
#54 = CC_DESIGN_DATE_AND_TIME_ASSIGNMENT ( #170, #5, ( #9 ) ) ;
#55 = DIRECTION ( 'NONE',  ( 0.0000000000000000000, 1.000000000000000000, 0.0000000000000000000 ) ) ;
#56 = DATE_AND_TIME ( #37, #230 ) ;
#57 = CARTESIAN_POINT ( 'NONE',  ( -1.068957861474239405E-32, 3.749399456654643592E-34, -3.061616997868382402E-18 ) ) ;
#58 =( NAMED_UNIT ( * ) PLANE_ANGLE_UNIT ( ) SI_UNIT ( $, .RADIAN. ) );
#59 = APPROVAL_DATE_TIME ( #4, #160 ) ;
#60 = COORDINATED_UNIVERSAL_TIME_OFFSET ( 1, 0, .AHEAD. ) ;
#61 = ADVANCED_FACE ( 'NONE', ( #239 ), #94, .F. ) ;
#62 = APPROVAL_DATE_TIME ( #188, #152 ) ;
#63 = AXIS2_PLACEMENT_3D ( 'NONE', #115, #133, #34 ) ;
#64 = CARTESIAN_POINT ( 'NONE',  ( 0.0000000000000000000, 0.0000000000000000000, 0.0000000000000000000 ) ) ;
#65 = EDGE_CURVE ( 'NONE', #1, #1, #69, .T. ) ;
#66 = CLOSED_SHELL ( 'NONE', ( #70, #172, #41, #208, #119, #213 ) ) ;
#67 = CC_DESIGN_DATE_AND_TIME_ASSIGNMENT ( #56, #118, ( #154 ) ) ;
#68 = ORIENTED_EDGE ( 'NONE', *, *, #65, .T. ) ;
#69 = CIRCLE ( 'NONE', #116, 0.7499999999999998890 ) ;
#70 = ADVANCED_FACE ( 'NONE', ( #92 ), #50, .F. ) ;
#71 = DIRECTION ( 'NONE',  ( -3.491481338843133355E-15, 1.224646799147353207E-16, -1.000000000000000000 ) ) ;
#72 = DIRECTION ( 'NONE',  ( 0.0000000000000000000, 1.000000000000000000, 0.0000000000000000000 ) ) ;
#73 = DIRECTION ( 'NONE',  ( -3.491481338843133355E-15, 1.224646799147353207E-16, -1.000000000000000000 ) ) ;
#74 = CIRCLE ( 'NONE', #35, 0.7500000000000009992 ) ;
#75 = MANIFOLD_SOLID_BREP ( 'Corps-Déplacer/Copier1[1]', #66 ) ;
#76 = DIRECTION ( 'NONE',  ( -3.491481338843133355E-15, 1.224646799147353207E-16, -1.000000000000000000 ) ) ;
#77 = MANIFOLD_SOLID_BREP ( 'Corps-Déplacer/Copier1[2]', #46 ) ;
#78 = FACE_OUTER_BOUND ( 'NONE', #48, .T. ) ;
#79 = DESIGN_CONTEXT ( 'detailed design', #13, 'design' ) ;
#80 = AXIS2_PLACEMENT_3D ( 'NONE', #221, #29, #132 ) ;
#81 = AXIS2_PLACEMENT_3D ( 'NONE', #51, #73, #131 ) ;
#82 = CARTESIAN_POINT ( 'NONE',  ( 4.293670381513976468E-15, 0.7499999999999997780, 1.229756073373899472 ) ) ;
#83 = CARTESIAN_POINT ( 'NONE',  ( 1.326762908760390423E-13, 1.199999999999998845, 38.00000000000000000 ) ) ;
#84 = DIRECTION ( 'NONE',  ( -3.491481338843133355E-15, 1.224646799147353207E-16, -1.000000000000000000 ) ) ;
#85 =( LENGTH_UNIT ( ) NAMED_UNIT ( * ) SI_UNIT ( .MILLI., .METRE. ) );
#86 = EDGE_LOOP ( 'NONE', ( #105 ) ) ;
#87 = AXIS2_PLACEMENT_3D ( 'NONE', #135, #159, #179 ) ;
#88 = EDGE_CURVE ( 'NONE', #38, #38, #47, .T. ) ;
#89 = ORIENTED_EDGE ( 'NONE', *, *, #165, .T. ) ;
#90 = ORIENTED_EDGE ( 'NONE', *, *, #88, .F. ) ;
#91 = CIRCLE ( 'NONE', #63, 1.499999999999996669 ) ;
#92 = FACE_OUTER_BOUND ( 'NONE', #8, .T. ) ;
#93 = FACE_BOUND ( 'NONE', #196, .T. ) ;
#94 = PLANE ( 'NONE',  #40 ) ;
#95 = DIRECTION ( 'NONE',  ( -4.275831445896958607E-31, -1.000000000000000000, -1.224646799147353207E-16 ) ) ;
#96 = EDGE_CURVE ( 'NONE', #207, #207, #74, .T. ) ;
#97 = CYLINDRICAL_SURFACE ( 'NONE', #182, 0.7500000000000004441 ) ;
#98 = CARTESIAN_POINT ( 'NONE',  ( 4.293670381513976468E-15, 0.7499999999999997780, 1.229756073373899472 ) ) ;
#99 = DIRECTION ( 'NONE',  ( 1.000000000000000000, 0.0000000000000000000, 0.0000000000000000000 ) ) ;
#100 = COORDINATED_UNIVERSAL_TIME_OFFSET ( 1, 0, .AHEAD. ) ;
#101 = PRODUCT_DEFINITION_SHAPE ( 'NONE', 'NONE',  #9 ) ;
#102 = CC_DESIGN_PERSON_AND_ORGANIZATION_ASSIGNMENT ( #124, #24, ( #12 ) ) ;
#103 = CALENDAR_DATE ( 2021, 24, 11 ) ;
#104 = EDGE_LOOP ( 'NONE', ( #174 ) ) ;
#105 = ORIENTED_EDGE ( 'NONE', *, *, #96, .F. ) ;
#106 = EDGE_LOOP ( 'NONE', ( #28 ) ) ;
#107 = ORIENTED_EDGE ( 'NONE', *, *, #192, .T. ) ;
#108 = CARTESIAN_POINT ( 'NONE',  ( -5.344789307371197027E-33, 1.874699728327321796E-34, -1.530808498934191201E-18 ) ) ;
#109 = CC_DESIGN_APPROVAL ( #152, ( #9 ) ) ;
#110 = CARTESIAN_POINT ( 'NONE',  ( 0.0000000000000000000, 0.0000000000000000000, 0.0000000000000000000 ) ) ;
#111 = CARTESIAN_POINT ( 'NONE',  ( 1.326762908760390423E-13, -4.653657836759941941E-15, 38.00000000000000000 ) ) ;
#112 = CC_DESIGN_PERSON_AND_ORGANIZATION_ASSIGNMENT ( #141, #193, ( #12 ) ) ;
#113 = FACE_OUTER_BOUND ( 'NONE', #175, .T. ) ;
#114 = PERSON_AND_ORGANIZATION_ROLE ( 'classification_officer' ) ;
#115 = CARTESIAN_POINT ( 'NONE',  ( 1.983837810246228641E-14, -6.958366345301815590E-16, 5.681937314617162116 ) ) ;
#116 = AXIS2_PLACEMENT_3D ( 'NONE', #180, #33, #72 ) ;
#117 = DIRECTION ( 'NONE',  ( 4.275831445896958607E-31, 1.000000000000000000, 1.224646799147353207E-16 ) ) ;
#118 = DATE_TIME_ROLE ( 'classification_date' ) ;
#119 = ADVANCED_FACE ( 'NONE', ( #113, #164 ), #31, .T. ) ;
#120 = APPLICATION_CONTEXT ( 'configuration controlled 3d designs of mechanical parts and assemblies' ) ;
#121 = APPLICATION_PROTOCOL_DEFINITION ( 'international standard', 'config_control_design', 1994, #13 ) ;
#122 = PERSON_AND_ORGANIZATION ( #181, #206 ) ;
#123 = APPROVAL_ROLE ( '' ) ;
#124 = PERSON_AND_ORGANIZATION ( #181, #206 ) ;
#125 = AXIS2_PLACEMENT_3D ( 'NONE', #11, #71, #32 ) ;
#126 = APPROVAL_PERSON_ORGANIZATION ( #150, #152, #227 ) ;
#127 = ORIENTED_EDGE ( 'NONE', *, *, #165, .F. ) ;
#128 = ORIENTED_EDGE ( 'NONE', *, *, #192, .F. ) ;
#129 = DIRECTION ( 'NONE',  ( -3.491481338843133355E-15, 1.224646799147353207E-16, -1.000000000000000000 ) ) ;
#130 = LOCAL_TIME ( 7, 51, 42.00000000000000000, #186 ) ;
#131 = DIRECTION ( 'NONE',  ( 4.275831445896959482E-31, 1.000000000000000000, 1.224646799147353207E-16 ) ) ;
#132 = DIRECTION ( 'NONE',  ( -4.275831445896958607E-31, -1.000000000000000000, -1.224646799147353207E-16 ) ) ;
#133 = DIRECTION ( 'NONE',  ( -3.491481338843133355E-15, 1.224646799147353207E-16, -1.000000000000000000 ) ) ;
#134 = PERSON_AND_ORGANIZATION ( #181, #206 ) ;
#135 = CARTESIAN_POINT ( 'NONE',  ( 4.293670381513976468E-15, -1.506016838989363613E-16, 1.229756073373899472 ) ) ;
#136 = EDGE_CURVE ( 'NONE', #185, #185, #232, .T. ) ;
#137 = CARTESIAN_POINT ( 'NONE',  ( 1.983837810246228641E-14, 1.499999999999996225, 5.681937314617162116 ) ) ;
#138 = CALENDAR_DATE ( 2021, 24, 11 ) ;
#139 = LOCAL_TIME ( 7, 51, 42.00000000000000000, #191 ) ;
#140 = PERSON_AND_ORGANIZATION ( #181, #206 ) ;
#141 = PERSON_AND_ORGANIZATION ( #181, #206 ) ;
#142 = ORIENTED_EDGE ( 'NONE', *, *, #7, .T. ) ;
#143 = CARTESIAN_POINT ( 'NONE',  ( 8.030407079339206717E-15, -2.816687638038912056E-16, 2.299999999999999822 ) ) ;
#144 = FACE_OUTER_BOUND ( 'NONE', #155, .T. ) ;
#145 = AXIS2_PLACEMENT_3D ( 'NONE', #222, #162, #95 ) ;
#146 = FACE_OUTER_BOUND ( 'NONE', #86, .T. ) ;
#147 = PLANE ( 'NONE',  #80 ) ;
#148 = DIRECTION ( 'NONE',  ( 0.0000000000000000000, 1.000000000000000000, 0.0000000000000000000 ) ) ;
#149 = CC_DESIGN_APPROVAL ( #236, ( #12 ) ) ;
#150 = PERSON_AND_ORGANIZATION ( #181, #206 ) ;
#151 = CALENDAR_DATE ( 2021, 24, 11 ) ;
#152 = APPROVAL ( #21, 'UNSPECIFIED' ) ;
#153 = CARTESIAN_POINT ( 'NONE',  ( 8.030407079339206717E-15, 0.7500000000000006661, 2.299999999999999822 ) ) ;
#154 = SECURITY_CLASSIFICATION ( '', '', #214 ) ;
#155 = EDGE_LOOP ( 'NONE', ( #127 ) ) ;
#156 = AXIS2_PLACEMENT_3D ( 'NONE', #199, #53, #238 ) ;
#157 = EDGE_LOOP ( 'NONE', ( #89 ) ) ;
#158 = APPROVAL_PERSON_ORGANIZATION ( #134, #160, #184 ) ;
#159 = DIRECTION ( 'NONE',  ( -3.491481338843133355E-15, 1.224646799147353207E-16, -1.000000000000000000 ) ) ;
#160 = APPROVAL ( #205, 'UNSPECIFIED' ) ;
#161 = DIRECTION ( 'NONE',  ( 4.275831445896958607E-31, 1.000000000000000000, 1.224646799147353207E-16 ) ) ;
#162 = DIRECTION ( 'NONE',  ( 3.491481338843133355E-15, -1.224646799147353207E-16, 1.000000000000000000 ) ) ;
#163 = AXIS2_PLACEMENT_3D ( 'NONE', #22, #84, #117 ) ;
#164 = FACE_BOUND ( 'NONE', #217, .T. ) ;
#165 = EDGE_CURVE ( 'NONE', #3, #3, #91, .T. ) ;
#166 = DIRECTION ( 'NONE',  ( -3.491481338843133355E-15, 1.224646799147353207E-16, -1.000000000000000000 ) ) ;
#167 = AXIS2_PLACEMENT_3D ( 'NONE', #111, #76, #148 ) ;
#168 = MECHANICAL_CONTEXT ( 'NONE', #120, 'mechanical' ) ;
#169 = ADVANCED_BREP_SHAPE_REPRESENTATION ( '976362', ( #75, #77, #237 ), #226 ) ;
#170 = DATE_AND_TIME ( #42, #178 ) ;
#171 = PLANE ( 'NONE',  #163 ) ;
#172 = ADVANCED_FACE ( 'NONE', ( #183, #17 ), #97, .T. ) ;
#173 = ORIENTED_EDGE ( 'NONE', *, *, #136, .F. ) ;
#174 = ORIENTED_EDGE ( 'NONE', *, *, #88, .T. ) ;
#175 = EDGE_LOOP ( 'NONE', ( #90 ) ) ;
#176 = DIRECTION ( 'NONE',  ( 3.491481338843133355E-15, -1.224646799147353207E-16, 1.000000000000000000 ) ) ;
#177 = AXIS2_PLACEMENT_3D ( 'NONE', #198, #166, #233 ) ;
#178 = LOCAL_TIME ( 7, 51, 42.00000000000000000, #100 ) ;
#179 = DIRECTION ( 'NONE',  ( 0.0000000000000000000, 1.000000000000000000, 0.0000000000000000000 ) ) ;
#180 = CARTESIAN_POINT ( 'NONE',  ( 4.293670381513976468E-15, -1.506016838989363613E-16, 1.229756073373899472 ) ) ;
#181 = PERSON ( 'UNSPECIFIED', 'UNSPECIFIED', 'UNSPECIFIED', ('UNSPECIFIED'), ('UNSPECIFIED'), ('UNSPECIFIED') ) ;
#182 = AXIS2_PLACEMENT_3D ( 'NONE', #110, #224, #14 ) ;
#183 = FACE_OUTER_BOUND ( 'NONE', #195, .T. ) ;
#184 = APPROVAL_ROLE ( '' ) ;
#185 = VERTEX_POINT ( 'NONE', #19 ) ;
#186 = COORDINATED_UNIVERSAL_TIME_OFFSET ( 1, 0, .AHEAD. ) ;
#187 = CC_DESIGN_PERSON_AND_ORGANIZATION_ASSIGNMENT ( #122, #229, ( #2 ) ) ;
#188 = DATE_AND_TIME ( #138, #215 ) ;
#189 = SHAPE_DEFINITION_REPRESENTATION ( #101, #169 ) ;
#190 = PERSON_AND_ORGANIZATION ( #181, #206 ) ;
#191 = COORDINATED_UNIVERSAL_TIME_OFFSET ( 1, 0, .AHEAD. ) ;
#192 = EDGE_CURVE ( 'NONE', #241, #241, #210, .T. ) ;
#193 = PERSON_AND_ORGANIZATION_ROLE ( 'creator' ) ;
#194 = UNCERTAINTY_MEASURE_WITH_UNIT (LENGTH_MEASURE( 1.000000000000000082E-05 ), #85, 'distance_accuracy_value', 'NONE');
#195 = EDGE_LOOP ( 'NONE', ( #26 ) ) ;
#196 = EDGE_LOOP ( 'NONE', ( #173 ) ) ;
#197 = EDGE_LOOP ( 'NONE', ( #128 ) ) ;
#198 = CARTESIAN_POINT ( 'NONE',  ( 1.326762908760390423E-13, -4.653657836759941941E-15, 38.00000000000000000 ) ) ;
#199 = CARTESIAN_POINT ( 'NONE',  ( -1.068957861474239405E-32, 3.749399456654643592E-34, -3.061616997868382402E-18 ) ) ;
#200 = CIRCLE ( 'NONE', #177, 1.200000000000003286 ) ;
#201 = APPROVAL_PERSON_ORGANIZATION ( #140, #236, #123 ) ;
#202 = FACE_OUTER_BOUND ( 'NONE', #231, .T. ) ;
#203 = DIRECTION ( 'NONE',  ( -4.275831445896958607E-31, -1.000000000000000000, -1.224646799147353207E-16 ) ) ;
#204 = DIRECTION ( 'NONE',  ( -3.491481338843133355E-15, 1.224646799147353207E-16, -1.000000000000000000 ) ) ;
#205 = APPROVAL_STATUS ( 'not_yet_approved' ) ;
#206 = ORGANIZATION ( 'UNSPECIFIED', 'UNSPECIFIED', '' ) ;
#207 = VERTEX_POINT ( 'NONE', #153 ) ;
#208 = ADVANCED_FACE ( 'NONE', ( #144, #235 ), #219, .T. ) ;
#209 = VERTEX_POINT ( 'NONE', #83 ) ;
#210 = CIRCLE ( 'NONE', #87, 0.7499999999999998890 ) ;
#211 = PERSON_AND_ORGANIZATION_ROLE ( 'creator' ) ;
#212 = PERSON_AND_ORGANIZATION ( #181, #206 ) ;
#213 = ADVANCED_FACE ( 'NONE', ( #202 ), #171, .F. ) ;
#214 = SECURITY_CLASSIFICATION_LEVEL ( 'unclassified' ) ;
#215 = LOCAL_TIME ( 7, 51, 42.00000000000000000, #60 ) ;
#216 = ORIENTED_EDGE ( 'NONE', *, *, #7, .F. ) ;
#217 = EDGE_LOOP ( 'NONE', ( #142 ) ) ;
#218 = FACE_OUTER_BOUND ( 'NONE', #197, .T. ) ;
#219 = CYLINDRICAL_SURFACE ( 'NONE', #81, 1.500000000000000000 ) ;
#220 = CC_DESIGN_SECURITY_CLASSIFICATION ( #154, ( #12 ) ) ;
#221 = CARTESIAN_POINT ( 'NONE',  ( 4.293670381513977257E-15, 5.624099184981963977E-33, 1.229756073373899694 ) ) ;
#222 = CARTESIAN_POINT ( 'NONE',  ( 4.293670381513977257E-15, 5.624099184981963977E-33, 1.229756073373899694 ) ) ;
#223 = COORDINATED_UNIVERSAL_TIME_OFFSET ( 1, 0, .AHEAD. ) ;
#224 = DIRECTION ( 'NONE',  ( -3.491481338843133355E-15, 1.224646799147353207E-16, -1.000000000000000000 ) ) ;
#225 = AXIS2_PLACEMENT_3D ( 'NONE', #16, #204, #15 ) ;
#226 =( GEOMETRIC_REPRESENTATION_CONTEXT ( 3 ) GLOBAL_UNCERTAINTY_ASSIGNED_CONTEXT ( ( #194 ) ) GLOBAL_UNIT_ASSIGNED_CONTEXT ( ( #85, #58, #39 ) ) REPRESENTATION_CONTEXT ( 'NONE', 'WORKASPACE' ) );
#227 = APPROVAL_ROLE ( '' ) ;
#228 = DIRECTION ( 'NONE',  ( 0.0000000000000000000, 0.0000000000000000000, 1.000000000000000000 ) ) ;
#229 = PERSON_AND_ORGANIZATION_ROLE ( 'design_owner' ) ;
#230 = LOCAL_TIME ( 7, 51, 42.00000000000000000, #223 ) ;
#231 = EDGE_LOOP ( 'NONE', ( #216 ) ) ;
#232 = CIRCLE ( 'NONE', #20, 0.04000000000000000083 ) ;
#233 = DIRECTION ( 'NONE',  ( 0.0000000000000000000, 1.000000000000000000, 0.0000000000000000000 ) ) ;
#234 = FACE_OUTER_BOUND ( 'NONE', #157, .T. ) ;
#235 = FACE_OUTER_BOUND ( 'NONE', #104, .T. ) ;
#236 = APPROVAL ( #43, 'UNSPECIFIED' ) ;
#237 = AXIS2_PLACEMENT_3D ( 'NONE', #64, #228, #99 ) ;
#238 = DIRECTION ( 'NONE',  ( -4.275831445896958607E-31, -1.000000000000000000, -1.224646799147353207E-16 ) ) ;
#239 = FACE_OUTER_BOUND ( 'NONE', #106, .T. ) ;
#240 = CC_DESIGN_PERSON_AND_ORGANIZATION_ASSIGNMENT ( #190, #211, ( #9 ) ) ;
#241 = VERTEX_POINT ( 'NONE', #82 ) ;
#242 = TOROIDAL_SURFACE ( 'NONE', #225, 8.750000000000000000, 8.000000000000000000 ) ;
#243 = CONICAL_SURFACE ( 'NONE', #156, 0.04000000000000000083, 0.5235987755983000369 ) ;
ENDSEC;
END-ISO-10303-21;
