ISO-10303-21;
HEADER;
FILE_DESCRIPTION (( 'STEP AP203' ),
    '1' );
FILE_NAME ('976361.step',
    '2021-11-24T06:51:41',
    ( '' ),
    ( '' ),
    'SwSTEP 2.0',
    'SolidWorks 2019',
    '' );
FILE_SCHEMA (( 'CONFIG_CONTROL_DESIGN' ));
ENDSEC;

DATA;
#1 = UNCERTAINTY_MEASURE_WITH_UNIT (LENGTH_MEASURE( 1.000000000000000082E-05 ), #19, 'distance_accuracy_value', 'NONE');
#2 = APPROVAL_ROLE ( '' ) ;
#3 = APPROVAL_DATE_TIME ( #65, #16 ) ;
#4 = PRODUCT ( '976361', '976361', '', ( #18 ) ) ;
#5 =( NAMED_UNIT ( * ) SI_UNIT ( $, .STERADIAN. ) SOLID_ANGLE_UNIT ( ) );
#6 = APPROVAL_STATUS ( 'not_yet_approved' ) ;
#7 = PRODUCT_DEFINITION_SHAPE ( 'NONE', 'NONE',  #96 ) ;
#8 = ORIENTED_EDGE ( 'NONE', *, *, #43, .T. ) ;
#9 = ADVANCED_FACE ( 'NONE', ( #190, #25 ), #92, .T. ) ;
#10 = ORIENTED_EDGE ( 'NONE', *, *, #53, .F. ) ;
#11 = AXIS2_PLACEMENT_3D ( 'NONE', #36, #180, #133 ) ;
#12 = LOCAL_TIME ( 7, 51, 41.00000000000000000, #208 ) ;
#13 = PLANE ( 'NONE',  #225 ) ;
#14 = CARTESIAN_POINT ( 'NONE',  ( -3.206873584422719174E-32, 1.124819836996393206E-33, -9.184850993605148746E-18 ) ) ;
#15 = FACE_OUTER_BOUND ( 'NONE', #127, .T. ) ;
#16 = APPROVAL ( #6, 'UNSPECIFIED' ) ;
#17 = DIRECTION ( 'NONE',  ( -3.491481338843133355E-15, 1.224646799147353207E-16, -1.000000000000000000 ) ) ;
#18 = MECHANICAL_CONTEXT ( 'NONE', #176, 'mechanical' ) ;
#19 =( LENGTH_UNIT ( ) NAMED_UNIT ( * ) SI_UNIT ( .MILLI., .METRE. ) );
#20 = CC_DESIGN_DATE_AND_TIME_ASSIGNMENT ( #157, #104, ( #202 ) ) ;
#21 = AXIS2_PLACEMENT_3D ( 'NONE', #30, #165, #177 ) ;
#22 = VERTEX_POINT ( 'NONE', #185 ) ;
#23 = CALENDAR_DATE ( 2021, 24, 11 ) ;
#24 = EDGE_LOOP ( 'NONE', ( #46 ) ) ;
#25 = FACE_OUTER_BOUND ( 'NONE', #70, .T. ) ;
#26 = APPLICATION_CONTEXT ( 'configuration controlled 3d designs of mechanical parts and assemblies' ) ;
#27 = LOCAL_TIME ( 7, 51, 41.00000000000000000, #155 ) ;
#28 = APPROVAL_DATE_TIME ( #224, #86 ) ;
#29 = EDGE_LOOP ( 'NONE', ( #211 ) ) ;
#30 = CARTESIAN_POINT ( 'NONE',  ( 1.316288464743861212E-13, -4.616918432785521081E-15, 37.69999999999999574 ) ) ;
#31 = ADVANCED_FACE ( 'NONE', ( #15, #221 ), #222, .F. ) ;
#32 = CARTESIAN_POINT ( 'NONE',  ( 1.326762908760390423E-13, 8.998558695971103225E-33, 38.00000000000000000 ) ) ;
#33 = FACE_OUTER_BOUND ( 'NONE', #47, .T. ) ;
#34 = FACE_OUTER_BOUND ( 'NONE', #194, .T. ) ;
#35 = APPROVAL_PERSON_ORGANIZATION ( #223, #16, #2 ) ;
#36 = CARTESIAN_POINT ( 'NONE',  ( 4.384381727602301598E-15, -1.537834096151110996E-16, 1.255736835487432757 ) ) ;
#37 = VERTEX_POINT ( 'NONE', #100 ) ;
#38 = VERTEX_POINT ( 'NONE', #117 ) ;
#39 = LOCAL_TIME ( 7, 51, 41.00000000000000000, #138 ) ;
#40 = PRODUCT_RELATED_PRODUCT_CATEGORY ( 'detail', '', ( #4 ) ) ;
#41 = VERTEX_POINT ( 'NONE', #189 ) ;
#42 = CALENDAR_DATE ( 2021, 24, 11 ) ;
#43 = EDGE_CURVE ( 'NONE', #22, #22, #64, .T. ) ;
#44 = CONICAL_SURFACE ( 'NONE', #54, 0.02499999999999999792, 0.5235987755982999259 ) ;
#45 = APPROVAL_DATE_TIME ( #233, #131 ) ;
#46 = ORIENTED_EDGE ( 'NONE', *, *, #89, .T. ) ;
#47 = EDGE_LOOP ( 'NONE', ( #215 ) ) ;
#48 = AXIS2_PLACEMENT_3D ( 'NONE', #32, #198, #132 ) ;
#49 = CC_DESIGN_DATE_AND_TIME_ASSIGNMENT ( #80, #182, ( #96 ) ) ;
#50 = ORIENTED_EDGE ( 'NONE', *, *, #230, .F. ) ;
#51 = APPROVAL_ROLE ( '' ) ;
#52 = ORIENTED_EDGE ( 'NONE', *, *, #43, .F. ) ;
#53 = EDGE_CURVE ( 'NONE', #37, #37, #191, .T. ) ;
#54 = AXIS2_PLACEMENT_3D ( 'NONE', #14, #114, #219 ) ;
#55 = CARTESIAN_POINT ( 'NONE',  ( 4.384381727602300809E-15, -3.630593613614791542E-16, 1.255736835487432534 ) ) ;
#56 = CARTESIAN_POINT ( 'NONE',  ( 0.0000000000000000000, 0.0000000000000000000, 0.0000000000000000000 ) ) ;
#57 = CARTESIAN_POINT ( 'NONE',  ( 8.030407079339206717E-15, 0.0000000000000000000, 2.299999999999999822 ) ) ;
#58 = CIRCLE ( 'NONE', #159, 0.02499999999999999792 ) ;
#59 = CARTESIAN_POINT ( 'NONE',  ( 4.384381727602301598E-15, -1.537834096151110996E-16, 1.255736835487432757 ) ) ;
#60 = COORDINATED_UNIVERSAL_TIME_OFFSET ( 1, 0, .AHEAD. ) ;
#61 = CARTESIAN_POINT ( 'NONE',  ( 4.384381727602301598E-15, 0.7499999999999997780, 1.255736835487432757 ) ) ;
#62 = ADVANCED_FACE ( 'NONE', ( #216 ), #13, .F. ) ;
#63 = CARTESIAN_POINT ( 'NONE',  ( 0.0000000000000000000, 0.0000000000000000000, 0.0000000000000000000 ) ) ;
#64 = CIRCLE ( 'NONE', #21, 1.500000000000003331 ) ;
#65 = DATE_AND_TIME ( #153, #152 ) ;
#66 = ADVANCED_FACE ( 'NONE', ( #98 ), #220, .F. ) ;
#67 = APPROVAL_STATUS ( 'not_yet_approved' ) ;
#68 = EDGE_LOOP ( 'NONE', ( #107 ) ) ;
#69 = PERSON_AND_ORGANIZATION ( #85, #188 ) ;
#70 = EDGE_LOOP ( 'NONE', ( #8 ) ) ;
#71 = PERSON_AND_ORGANIZATION ( #85, #188 ) ;
#72 = EDGE_LOOP ( 'NONE', ( #213 ) ) ;
#73 = CARTESIAN_POINT ( 'NONE',  ( -3.206873584422719174E-32, 1.124819836996393206E-33, -9.184850993605148746E-18 ) ) ;
#74 = FACE_BOUND ( 'NONE', #209, .T. ) ;
#75 = DIRECTION ( 'NONE',  ( -3.491481338843133355E-15, 1.224646799147353207E-16, -1.000000000000000000 ) ) ;
#76 = DIRECTION ( 'NONE',  ( 0.0000000000000000000, 1.000000000000000000, 0.0000000000000000000 ) ) ;
#77 = MANIFOLD_SOLID_BREP ( 'Corps-Déplacer/Copier1[2]', #136 ) ;
#78 = DIRECTION ( 'NONE',  ( 3.491481338843133355E-15, -1.224646799147353207E-16, 1.000000000000000000 ) ) ;
#79 = APPLICATION_PROTOCOL_DEFINITION ( 'international standard', 'config_control_design', 1994, #26 ) ;
#80 = DATE_AND_TIME ( #42, #39 ) ;
#81 = DIRECTION ( 'NONE',  ( 0.0000000000000000000, 0.0000000000000000000, 1.000000000000000000 ) ) ;
#82 = CC_DESIGN_SECURITY_CLASSIFICATION ( #202, ( #91 ) ) ;
#83 = EDGE_CURVE ( 'NONE', #101, #101, #126, .T. ) ;
#84 = AXIS2_PLACEMENT_3D ( 'NONE', #63, #137, #154 ) ;
#85 = PERSON ( 'UNSPECIFIED', 'UNSPECIFIED', 'UNSPECIFIED', ('UNSPECIFIED'), ('UNSPECIFIED'), ('UNSPECIFIED') ) ;
#86 = APPROVAL ( #67, 'UNSPECIFIED' ) ;
#87 = PERSON_AND_ORGANIZATION_ROLE ( 'creator' ) ;
#88 = AXIS2_PLACEMENT_3D ( 'NONE', #128, #148, #149 ) ;
#89 = EDGE_CURVE ( 'NONE', #206, #206, #58, .T. ) ;
#90 = CIRCLE ( 'NONE', #143, 0.7500000000000009992 ) ;
#91 = PRODUCT_DEFINITION_FORMATION_WITH_SPECIFIED_SOURCE ( 'ANY', '', #4, .NOT_KNOWN. ) ;
#92 = CYLINDRICAL_SURFACE ( 'NONE', #129, 1.500000000000000000 ) ;
#93 = CARTESIAN_POINT ( 'NONE',  ( 8.030407079339206717E-15, -2.816687638038912056E-16, 2.299999999999999822 ) ) ;
#94 = AXIS2_PLACEMENT_3D ( 'NONE', #147, #78, #145 ) ;
#95 = FACE_OUTER_BOUND ( 'NONE', #158, .T. ) ;
#96 = PRODUCT_DEFINITION ( 'UNKNOWN', '', #91, #181 ) ;
#97 = DIRECTION ( 'NONE',  ( 4.275831445896959482E-31, 1.000000000000000000, 1.224646799147353207E-16 ) ) ;
#98 = FACE_OUTER_BOUND ( 'NONE', #24, .T. ) ;
#99 = CLOSED_SHELL ( 'NONE', ( #62, #234, #31, #9, #183, #146 ) ) ;
#100 = CARTESIAN_POINT ( 'NONE',  ( 1.326762908760390423E-13, 1.199999999999998845, 38.00000000000000000 ) ) ;
#101 = VERTEX_POINT ( 'NONE', #61 ) ;
#102 = CC_DESIGN_PERSON_AND_ORGANIZATION_ASSIGNMENT ( #120, #228, ( #96 ) ) ;
#103 = CYLINDRICAL_SURFACE ( 'NONE', #84, 0.7500000000000004441 ) ;
#104 = DATE_TIME_ROLE ( 'classification_date' ) ;
#105 = ORIENTED_EDGE ( 'NONE', *, *, #230, .T. ) ;
#106 = CC_DESIGN_PERSON_AND_ORGANIZATION_ASSIGNMENT ( #168, #227, ( #4 ) ) ;
#107 = ORIENTED_EDGE ( 'NONE', *, *, #116, .T. ) ;
#108 = PERSON_AND_ORGANIZATION_ROLE ( 'design_supplier' ) ;
#109 = APPROVAL_PERSON_ORGANIZATION ( #151, #86, #139 ) ;
#110 = CARTESIAN_POINT ( 'NONE',  ( 4.384381727602300809E-15, -3.630593613614791542E-16, 1.255736835487432534 ) ) ;
#111 = DIRECTION ( 'NONE',  ( -3.491481338843133355E-15, 1.224646799147353207E-16, -1.000000000000000000 ) ) ;
#112 = CC_DESIGN_PERSON_AND_ORGANIZATION_ASSIGNMENT ( #69, #141, ( #202 ) ) ;
#113 = DIRECTION ( 'NONE',  ( 0.0000000000000000000, 1.000000000000000000, 0.0000000000000000000 ) ) ;
#114 = DIRECTION ( 'NONE',  ( 3.491481338843133355E-15, -1.224646799147353207E-16, 1.000000000000000000 ) ) ;
#115 = FACE_BOUND ( 'NONE', #174, .T. ) ;
#116 = EDGE_CURVE ( 'NONE', #122, #122, #121, .T. ) ;
#117 = CARTESIAN_POINT ( 'NONE',  ( 8.030407079339206717E-15, 0.7500000000000006661, 2.299999999999999822 ) ) ;
#118 = CC_DESIGN_APPROVAL ( #86, ( #91 ) ) ;
#119 = CC_DESIGN_PERSON_AND_ORGANIZATION_ASSIGNMENT ( #71, #108, ( #91 ) ) ;
#120 = PERSON_AND_ORGANIZATION ( #85, #188 ) ;
#121 = CIRCLE ( 'NONE', #11, 0.7499999999999998890 ) ;
#122 = VERTEX_POINT ( 'NONE', #204 ) ;
#123 = SHAPE_DEFINITION_REPRESENTATION ( #7, #169 ) ;
#124 = ORIENTED_EDGE ( 'NONE', *, *, #210, .F. ) ;
#125 = EDGE_LOOP ( 'NONE', ( #50 ) ) ;
#126 = CIRCLE ( 'NONE', #201, 0.7499999999999998890 ) ;
#127 = EDGE_LOOP ( 'NONE', ( #105 ) ) ;
#128 = CARTESIAN_POINT ( 'NONE',  ( 1.326762908760390423E-13, -4.653657836759941941E-15, 38.00000000000000000 ) ) ;
#129 = AXIS2_PLACEMENT_3D ( 'NONE', #56, #242, #97 ) ;
#130 = DIRECTION ( 'NONE',  ( -3.491481338843133355E-15, 1.224646799147353207E-16, -1.000000000000000000 ) ) ;
#131 = APPROVAL ( #195, 'UNSPECIFIED' ) ;
#132 = DIRECTION ( 'NONE',  ( 4.275831445896958607E-31, 1.000000000000000000, 1.224646799147353207E-16 ) ) ;
#133 = DIRECTION ( 'NONE',  ( 0.0000000000000000000, 1.000000000000000000, 0.0000000000000000000 ) ) ;
#134 = DIRECTION ( 'NONE',  ( -3.491481338843133355E-15, 1.224646799147353207E-16, -1.000000000000000000 ) ) ;
#135 = CALENDAR_DATE ( 2021, 24, 11 ) ;
#136 = CLOSED_SHELL ( 'NONE', ( #66, #172, #214 ) ) ;
#137 = DIRECTION ( 'NONE',  ( -3.491481338843133355E-15, 1.224646799147353207E-16, -1.000000000000000000 ) ) ;
#138 = COORDINATED_UNIVERSAL_TIME_OFFSET ( 1, 0, .AHEAD. ) ;
#139 = APPROVAL_ROLE ( '' ) ;
#140 = ORIENTED_EDGE ( 'NONE', *, *, #210, .T. ) ;
#141 = PERSON_AND_ORGANIZATION_ROLE ( 'classification_officer' ) ;
#142 = ORIENTED_EDGE ( 'NONE', *, *, #53, .T. ) ;
#143 = AXIS2_PLACEMENT_3D ( 'NONE', #93, #179, #76 ) ;
#144 = DIRECTION ( 'NONE',  ( 0.0000000000000000000, 1.000000000000000000, 0.0000000000000000000 ) ) ;
#145 = DIRECTION ( 'NONE',  ( -4.275831445896958607E-31, -1.000000000000000000, -1.224646799147353207E-16 ) ) ;
#146 = ADVANCED_FACE ( 'NONE', ( #34 ), #197, .F. ) ;
#147 = CARTESIAN_POINT ( 'NONE',  ( -1.603436792211359587E-32, 5.624099184981966029E-34, -4.592425496802574373E-18 ) ) ;
#148 = DIRECTION ( 'NONE',  ( -3.491481338843133355E-15, 1.224646799147353207E-16, -1.000000000000000000 ) ) ;
#149 = DIRECTION ( 'NONE',  ( 0.0000000000000000000, 1.000000000000000000, 0.0000000000000000000 ) ) ;
#150 = CARTESIAN_POINT ( 'NONE',  ( -2.137915722948479905E-32, 0.02499999999999999792, -6.123233995736766344E-18 ) ) ;
#151 = PERSON_AND_ORGANIZATION ( #85, #188 ) ;
#152 = LOCAL_TIME ( 7, 51, 41.00000000000000000, #166 ) ;
#153 = CALENDAR_DATE ( 2021, 24, 11 ) ;
#154 = DIRECTION ( 'NONE',  ( 4.275831445896958607E-31, 1.000000000000000000, 1.224646799147353207E-16 ) ) ;
#155 = COORDINATED_UNIVERSAL_TIME_OFFSET ( 1, 0, .AHEAD. ) ;
#156 = AXIS2_PLACEMENT_3D ( 'NONE', #199, #17, #144 ) ;
#157 = DATE_AND_TIME ( #192, #27 ) ;
#158 = EDGE_LOOP ( 'NONE', ( #140 ) ) ;
#159 = AXIS2_PLACEMENT_3D ( 'NONE', #73, #111, #200 ) ;
#160 = CIRCLE ( 'NONE', #239, 1.499999999999996669 ) ;
#161 = DIRECTION ( 'NONE',  ( 3.491481338843133355E-15, -1.224646799147353207E-16, 1.000000000000000000 ) ) ;
#162 = DIRECTION ( 'NONE',  ( 4.355100981429076768E-31, 1.000000000000000000, 1.224646799147353207E-16 ) ) ;
#163 = AXIS2_PLACEMENT_3D ( 'NONE', #57, #130, #162 ) ;
#164 = FACE_OUTER_BOUND ( 'NONE', #29, .T. ) ;
#165 = DIRECTION ( 'NONE',  ( -3.491481338843133355E-15, 1.224646799147353207E-16, -1.000000000000000000 ) ) ;
#166 = COORDINATED_UNIVERSAL_TIME_OFFSET ( 1, 0, .AHEAD. ) ;
#167 = CARTESIAN_POINT ( 'NONE',  ( 0.0000000000000000000, 0.0000000000000000000, 0.0000000000000000000 ) ) ;
#168 = PERSON_AND_ORGANIZATION ( #85, #188 ) ;
#169 = ADVANCED_BREP_SHAPE_REPRESENTATION ( '976361', ( #241, #77, #170 ), #226 ) ;
#170 = AXIS2_PLACEMENT_3D ( 'NONE', #167, #81, #171 ) ;
#171 = DIRECTION ( 'NONE',  ( 1.000000000000000000, 0.0000000000000000000, 0.0000000000000000000 ) ) ;
#172 = ADVANCED_FACE ( 'NONE', ( #178, #74 ), #44, .T. ) ;
#173 = PERSON_AND_ORGANIZATION ( #85, #188 ) ;
#174 = EDGE_LOOP ( 'NONE', ( #142 ) ) ;
#175 = DIRECTION ( 'NONE',  ( 3.491481338843133355E-15, -1.224646799147353207E-16, 1.000000000000000000 ) ) ;
#176 = APPLICATION_CONTEXT ( 'configuration controlled 3d designs of mechanical parts and assemblies' ) ;
#177 = DIRECTION ( 'NONE',  ( 0.0000000000000000000, 1.000000000000000000, 0.0000000000000000000 ) ) ;
#178 = FACE_OUTER_BOUND ( 'NONE', #72, .T. ) ;
#179 = DIRECTION ( 'NONE',  ( -3.491481338843133355E-15, 1.224646799147353207E-16, -1.000000000000000000 ) ) ;
#180 = DIRECTION ( 'NONE',  ( -3.491481338843133355E-15, 1.224646799147353207E-16, -1.000000000000000000 ) ) ;
#181 = DESIGN_CONTEXT ( 'detailed design', #26, 'design' ) ;
#182 = DATE_TIME_ROLE ( 'creation_date' ) ;
#183 = ADVANCED_FACE ( 'NONE', ( #203, #115 ), #243, .T. ) ;
#184 = AXIS2_PLACEMENT_3D ( 'NONE', #110, #175, #238 ) ;
#185 = CARTESIAN_POINT ( 'NONE',  ( 1.316288464743861212E-13, 1.499999999999998668, 37.69999999999999574 ) ) ;
#186 = CC_DESIGN_PERSON_AND_ORGANIZATION_ASSIGNMENT ( #173, #87, ( #91 ) ) ;
#187 = LOCAL_TIME ( 7, 51, 41.00000000000000000, #60 ) ;
#188 = ORGANIZATION ( 'UNSPECIFIED', 'UNSPECIFIED', '' ) ;
#189 = CARTESIAN_POINT ( 'NONE',  ( 1.983837810246228641E-14, 1.499999999999996225, 5.681937314617162116 ) ) ;
#190 = FACE_OUTER_BOUND ( 'NONE', #125, .T. ) ;
#191 = CIRCLE ( 'NONE', #88, 1.200000000000003286 ) ;
#192 = CALENDAR_DATE ( 2021, 24, 11 ) ;
#193 = APPROVAL_PERSON_ORGANIZATION ( #212, #131, #51 ) ;
#194 = EDGE_LOOP ( 'NONE', ( #10 ) ) ;
#195 = APPROVAL_STATUS ( 'not_yet_approved' ) ;
#196 = EDGE_LOOP ( 'NONE', ( #52 ) ) ;
#197 = PLANE ( 'NONE',  #48 ) ;
#198 = DIRECTION ( 'NONE',  ( -3.491481338843133355E-15, 1.224646799147353207E-16, -1.000000000000000000 ) ) ;
#199 = CARTESIAN_POINT ( 'NONE',  ( 1.326762908760390423E-13, -4.653657836759941941E-15, 38.00000000000000000 ) ) ;
#200 = DIRECTION ( 'NONE',  ( 4.275831445896957731E-31, 1.000000000000000000, 1.224646799147353454E-16 ) ) ;
#201 = AXIS2_PLACEMENT_3D ( 'NONE', #59, #134, #236 ) ;
#202 = SECURITY_CLASSIFICATION ( '', '', #232 ) ;
#203 = FACE_OUTER_BOUND ( 'NONE', #196, .T. ) ;
#204 = CARTESIAN_POINT ( 'NONE',  ( 4.384381727602301598E-15, 0.7499999999999997780, 1.255736835487432757 ) ) ;
#205 = APPLICATION_PROTOCOL_DEFINITION ( 'international standard', 'config_control_design', 1994, #176 ) ;
#206 = VERTEX_POINT ( 'NONE', #150 ) ;
#207 =( NAMED_UNIT ( * ) PLANE_ANGLE_UNIT ( ) SI_UNIT ( $, .RADIAN. ) );
#208 = COORDINATED_UNIVERSAL_TIME_OFFSET ( 1, 0, .AHEAD. ) ;
#209 = EDGE_LOOP ( 'NONE', ( #231 ) ) ;
#210 = EDGE_CURVE ( 'NONE', #38, #38, #90, .T. ) ;
#211 = ORIENTED_EDGE ( 'NONE', *, *, #116, .F. ) ;
#212 = PERSON_AND_ORGANIZATION ( #85, #188 ) ;
#213 = ORIENTED_EDGE ( 'NONE', *, *, #83, .T. ) ;
#214 = ADVANCED_FACE ( 'NONE', ( #33 ), #240, .T. ) ;
#215 = ORIENTED_EDGE ( 'NONE', *, *, #83, .F. ) ;
#216 = FACE_OUTER_BOUND ( 'NONE', #68, .T. ) ;
#217 = CARTESIAN_POINT ( 'NONE',  ( 1.983837810246228641E-14, -6.958366345301815590E-16, 5.681937314617162116 ) ) ;
#218 = CC_DESIGN_APPROVAL ( #16, ( #96 ) ) ;
#219 = DIRECTION ( 'NONE',  ( -4.275831445896957731E-31, -1.000000000000000000, -1.224646799147353454E-16 ) ) ;
#220 = PLANE ( 'NONE',  #94 ) ;
#221 = FACE_OUTER_BOUND ( 'NONE', #235, .T. ) ;
#222 = TOROIDAL_SURFACE ( 'NONE', #163, 8.750000000000000000, 8.000000000000000000 ) ;
#223 = PERSON_AND_ORGANIZATION ( #85, #188 ) ;
#224 = DATE_AND_TIME ( #135, #187 ) ;
#225 = AXIS2_PLACEMENT_3D ( 'NONE', #55, #161, #237 ) ;
#226 =( GEOMETRIC_REPRESENTATION_CONTEXT ( 3 ) GLOBAL_UNCERTAINTY_ASSIGNED_CONTEXT ( ( #1 ) ) GLOBAL_UNIT_ASSIGNED_CONTEXT ( ( #19, #207, #5 ) ) REPRESENTATION_CONTEXT ( 'NONE', 'WORKASPACE' ) );
#227 = PERSON_AND_ORGANIZATION_ROLE ( 'design_owner' ) ;
#228 = PERSON_AND_ORGANIZATION_ROLE ( 'creator' ) ;
#229 = CC_DESIGN_APPROVAL ( #131, ( #202 ) ) ;
#230 = EDGE_CURVE ( 'NONE', #41, #41, #160, .T. ) ;
#231 = ORIENTED_EDGE ( 'NONE', *, *, #89, .F. ) ;
#232 = SECURITY_CLASSIFICATION_LEVEL ( 'unclassified' ) ;
#233 = DATE_AND_TIME ( #23, #12 ) ;
#234 = ADVANCED_FACE ( 'NONE', ( #95, #164 ), #103, .T. ) ;
#235 = EDGE_LOOP ( 'NONE', ( #124 ) ) ;
#236 = DIRECTION ( 'NONE',  ( 0.0000000000000000000, 1.000000000000000000, 0.0000000000000000000 ) ) ;
#237 = DIRECTION ( 'NONE',  ( -4.275831445896958607E-31, -1.000000000000000000, -1.224646799147353207E-16 ) ) ;
#238 = DIRECTION ( 'NONE',  ( -4.275831445896958607E-31, -1.000000000000000000, -1.224646799147353207E-16 ) ) ;
#239 = AXIS2_PLACEMENT_3D ( 'NONE', #217, #75, #113 ) ;
#240 = PLANE ( 'NONE',  #184 ) ;
#241 = MANIFOLD_SOLID_BREP ( 'Corps-Déplacer/Copier1[1]', #99 ) ;
#242 = DIRECTION ( 'NONE',  ( -3.491481338843133355E-15, 1.224646799147353207E-16, -1.000000000000000000 ) ) ;
#243 = CONICAL_SURFACE ( 'NONE', #156, 1.200000000000003286, 0.7853981633974453924 ) ;
ENDSEC;
END-ISO-10303-21;
