ISO-10303-21;
HEADER;
FILE_DESCRIPTION (( 'STEP AP203' ),
    '1' );
FILE_NAME ('976267.step',
    '2021-11-24T07:10:02',
    ( '' ),
    ( '' ),
    'SwSTEP 2.0',
    'SolidWorks 2019',
    '' );
FILE_SCHEMA (( 'CONFIG_CONTROL_DESIGN' ));
ENDSEC;

DATA;
#1 = DIRECTION ( 'NONE',  ( -3.491481338843133355E-15, 1.224646799147353207E-16, -1.000000000000000000 ) ) ;
#2 = ORIENTED_EDGE ( 'NONE', *, *, #216, .F. ) ;
#3 = PERSON_AND_ORGANIZATION_ROLE ( 'design_supplier' ) ;
#4 = ORGANIZATION ( 'UNSPECIFIED', 'UNSPECIFIED', '' ) ;
#5 = PERSON_AND_ORGANIZATION ( #103, #4 ) ;
#6 = VERTEX_POINT ( 'NONE', #153 ) ;
#7 = CALENDAR_DATE ( 2021, 24, 11 ) ;
#8 = CC_DESIGN_APPROVAL ( #125, ( #156 ) ) ;
#9 = FACE_BOUND ( 'NONE', #194, .T. ) ;
#10 = AXIS2_PLACEMENT_3D ( 'NONE', #104, #149, #58 ) ;
#11 = ADVANCED_BREP_SHAPE_REPRESENTATION ( '976267', ( #163, #242, #161 ), #170 ) ;
#12 = PERSON_AND_ORGANIZATION ( #103, #4 ) ;
#13 = CC_DESIGN_PERSON_AND_ORGANIZATION_ASSIGNMENT ( #25, #231, ( #197 ) ) ;
#14 = CYLINDRICAL_SURFACE ( 'NONE', #175, 0.7500000000000004441 ) ;
#15 = AXIS2_PLACEMENT_3D ( 'NONE', #189, #225, #102 ) ;
#16 = FACE_OUTER_BOUND ( 'NONE', #203, .T. ) ;
#17 = EDGE_LOOP ( 'NONE', ( #2 ) ) ;
#18 = EDGE_CURVE ( 'NONE', #123, #123, #91, .T. ) ;
#19 = CARTESIAN_POINT ( 'NONE',  ( 1.316288464743861212E-13, -4.616918432785521081E-15, 37.69999999999999574 ) ) ;
#20 = APPLICATION_CONTEXT ( 'configuration controlled 3d designs of mechanical parts and assemblies' ) ;
#21 = DIRECTION ( 'NONE',  ( -3.491481338843133355E-15, 1.224646799147353207E-16, -1.000000000000000000 ) ) ;
#22 = ORIENTED_EDGE ( 'NONE', *, *, #18, .T. ) ;
#23 = AXIS2_PLACEMENT_3D ( 'NONE', #68, #21, #34 ) ;
#24 = DIRECTION ( 'NONE',  ( 0.0000000000000000000, 1.000000000000000000, 0.0000000000000000000 ) ) ;
#25 = PERSON_AND_ORGANIZATION ( #103, #4 ) ;
#26 = CIRCLE ( 'NONE', #59, 0.07499999999999999722 ) ;
#27 = CARTESIAN_POINT ( 'NONE',  ( 1.983837810246228641E-14, 1.499999999999996225, 5.681937314617162116 ) ) ;
#28 = DATE_TIME_ROLE ( 'creation_date' ) ;
#29 = APPROVAL_ROLE ( '' ) ;
#30 = ORIENTED_EDGE ( 'NONE', *, *, #18, .F. ) ;
#31 = CALENDAR_DATE ( 2021, 24, 11 ) ;
#32 = ORIENTED_EDGE ( 'NONE', *, *, #177, .T. ) ;
#33 = CARTESIAN_POINT ( 'NONE',  ( 5.054066478435866660E-15, -1.772727886767176174E-16, 1.447542171343948691 ) ) ;
#34 = DIRECTION ( 'NONE',  ( 0.0000000000000000000, 1.000000000000000000, 0.0000000000000000000 ) ) ;
#35 = EDGE_LOOP ( 'NONE', ( #202 ) ) ;
#36 = APPLICATION_CONTEXT ( 'configuration controlled 3d designs of mechanical parts and assemblies' ) ;
#37 = DIRECTION ( 'NONE',  ( -3.491481338843133355E-15, 1.224646799147353207E-16, -1.000000000000000000 ) ) ;
#38 = CYLINDRICAL_SURFACE ( 'NONE', #214, 1.500000000000000000 ) ;
#39 = UNCERTAINTY_MEASURE_WITH_UNIT (LENGTH_MEASURE( 1.000000000000000082E-05 ), #228, 'distance_accuracy_value', 'NONE');
#40 = CARTESIAN_POINT ( 'NONE',  ( -1.068957861474239679E-32, 3.749399456654644447E-34, -3.061616997868383172E-18 ) ) ;
#41 = ORIENTED_EDGE ( 'NONE', *, *, #177, .F. ) ;
#42 = APPROVAL_PERSON_ORGANIZATION ( #229, #142, #29 ) ;
#43 = DATE_AND_TIME ( #211, #121 ) ;
#44 = PRODUCT ( '976267', '976267', '', ( #176 ) ) ;
#45 = VERTEX_POINT ( 'NONE', #60 ) ;
#46 = APPROVAL_DATE_TIME ( #43, #129 ) ;
#47 = CLOSED_SHELL ( 'NONE', ( #233, #166, #195 ) ) ;
#48 = PERSON_AND_ORGANIZATION ( #103, #4 ) ;
#49 = AXIS2_PLACEMENT_3D ( 'NONE', #85, #167, #224 ) ;
#50 = DATE_TIME_ROLE ( 'classification_date' ) ;
#51 = CC_DESIGN_APPROVAL ( #142, ( #197 ) ) ;
#52 = EDGE_LOOP ( 'NONE', ( #160 ) ) ;
#53 = DIRECTION ( 'NONE',  ( 4.275831445896959482E-31, 1.000000000000000000, 1.224646799147353207E-16 ) ) ;
#54 = PLANE ( 'NONE',  #230 ) ;
#55 = APPROVAL_PERSON_ORGANIZATION ( #48, #129, #113 ) ;
#56 = FACE_OUTER_BOUND ( 'NONE', #235, .T. ) ;
#57 = DIRECTION ( 'NONE',  ( 4.275831445896958607E-31, 1.000000000000000000, 1.224646799147353207E-16 ) ) ;
#58 = DIRECTION ( 'NONE',  ( 4.355100981429076768E-31, 1.000000000000000000, 1.224646799147353207E-16 ) ) ;
#59 = AXIS2_PLACEMENT_3D ( 'NONE', #130, #37, #240 ) ;
#60 = CARTESIAN_POINT ( 'NONE',  ( 1.326762908760390423E-13, 1.199999999999998845, 38.00000000000000000 ) ) ;
#61 = APPROVAL_STATUS ( 'not_yet_approved' ) ;
#62 = ADVANCED_FACE ( 'NONE', ( #115, #9 ), #204, .T. ) ;
#63 = CIRCLE ( 'NONE', #23, 1.200000000000003286 ) ;
#64 = CALENDAR_DATE ( 2021, 24, 11 ) ;
#65 = EDGE_LOOP ( 'NONE', ( #126 ) ) ;
#66 = ORIENTED_EDGE ( 'NONE', *, *, #137, .F. ) ;
#67 = CARTESIAN_POINT ( 'NONE',  ( 0.0000000000000000000, 0.0000000000000000000, 0.0000000000000000000 ) ) ;
#68 = CARTESIAN_POINT ( 'NONE',  ( 1.326762908760390423E-13, -4.653657836759941941E-15, 38.00000000000000000 ) ) ;
#69 = ORIENTED_EDGE ( 'NONE', *, *, #119, .F. ) ;
#70 = FACE_OUTER_BOUND ( 'NONE', #122, .T. ) ;
#71 = CARTESIAN_POINT ( 'NONE',  ( 5.054066478435866660E-15, 5.624099184981963292E-33, 1.447542171343948691 ) ) ;
#72 = DIRECTION ( 'NONE',  ( 0.0000000000000000000, 1.000000000000000000, 0.0000000000000000000 ) ) ;
#73 = DIRECTION ( 'NONE',  ( 0.0000000000000000000, 0.0000000000000000000, 1.000000000000000000 ) ) ;
#74 = PERSON_AND_ORGANIZATION_ROLE ( 'design_owner' ) ;
#75 = ADVANCED_FACE ( 'NONE', ( #205, #70 ), #157, .F. ) ;
#76 = APPLICATION_PROTOCOL_DEFINITION ( 'international standard', 'config_control_design', 1994, #20 ) ;
#77 = LOCAL_TIME ( 8, 10, 2.000000000000000000, #227 ) ;
#78 = DATE_AND_TIME ( #7, #208 ) ;
#79 = APPROVAL_DATE_TIME ( #117, #125 ) ;
#80 = APPROVAL_ROLE ( '' ) ;
#81 = AXIS2_PLACEMENT_3D ( 'NONE', #237, #221, #223 ) ;
#82 = CARTESIAN_POINT ( 'NONE',  ( 5.054066478435866660E-15, 5.624099184981963292E-33, 1.447542171343948691 ) ) ;
#83 = FACE_OUTER_BOUND ( 'NONE', #65, .T. ) ;
#84 = FACE_OUTER_BOUND ( 'NONE', #35, .T. ) ;
#85 = CARTESIAN_POINT ( 'NONE',  ( 1.983837810246228641E-14, -6.958366345301815590E-16, 5.681937314617162116 ) ) ;
#86 = EDGE_CURVE ( 'NONE', #112, #112, #234, .T. ) ;
#87 = FACE_OUTER_BOUND ( 'NONE', #131, .T. ) ;
#88 = ORIENTED_EDGE ( 'NONE', *, *, #99, .F. ) ;
#89 = PERSON_AND_ORGANIZATION_ROLE ( 'creator' ) ;
#90 = CARTESIAN_POINT ( 'NONE',  ( 8.030407079339206717E-15, 0.7500000000000006661, 2.299999999999999822 ) ) ;
#91 = CIRCLE ( 'NONE', #222, 0.7500000000000009992 ) ;
#92 = VERTEX_POINT ( 'NONE', #210 ) ;
#93 = CARTESIAN_POINT ( 'NONE',  ( 1.068957861474239405E-32, 0.07499999999999999722, 3.061616997868381631E-18 ) ) ;
#94 = COORDINATED_UNIVERSAL_TIME_OFFSET ( 1, 0, .AHEAD. ) ;
#95 = CC_DESIGN_PERSON_AND_ORGANIZATION_ASSIGNMENT ( #5, #74, ( #44 ) ) ;
#96 = CC_DESIGN_SECURITY_CLASSIFICATION ( #156, ( #197 ) ) ;
#97 = SHAPE_DEFINITION_REPRESENTATION ( #124, #11 ) ;
#98 = ORIENTED_EDGE ( 'NONE', *, *, #86, .F. ) ;
#99 = EDGE_CURVE ( 'NONE', #92, #92, #212, .T. ) ;
#100 = DATE_AND_TIME ( #64, #190 ) ;
#101 = COORDINATED_UNIVERSAL_TIME_OFFSET ( 1, 0, .AHEAD. ) ;
#102 = DIRECTION ( 'NONE',  ( -4.275831445896959482E-31, -1.000000000000000000, -1.224646799147352961E-16 ) ) ;
#103 = PERSON ( 'UNSPECIFIED', 'UNSPECIFIED', 'UNSPECIFIED', ('UNSPECIFIED'), ('UNSPECIFIED'), ('UNSPECIFIED') ) ;
#104 = CARTESIAN_POINT ( 'NONE',  ( 8.030407079339206717E-15, 0.0000000000000000000, 2.299999999999999822 ) ) ;
#105 = EDGE_LOOP ( 'NONE', ( #118 ) ) ;
#106 = PLANE ( 'NONE',  #226 ) ;
#107 = DIRECTION ( 'NONE',  ( -3.491481338843133355E-15, 1.224646799147353207E-16, -1.000000000000000000 ) ) ;
#108 = DIRECTION ( 'NONE',  ( -4.275831445896958607E-31, -1.000000000000000000, -1.224646799147353207E-16 ) ) ;
#109 = APPROVAL_PERSON_ORGANIZATION ( #141, #125, #80 ) ;
#110 = PERSON_AND_ORGANIZATION ( #103, #4 ) ;
#111 = VERTEX_POINT ( 'NONE', #27 ) ;
#112 = VERTEX_POINT ( 'NONE', #196 ) ;
#113 = APPROVAL_ROLE ( '' ) ;
#114 = ADVANCED_FACE ( 'NONE', ( #143, #16 ), #14, .T. ) ;
#115 = FACE_OUTER_BOUND ( 'NONE', #181, .T. ) ;
#116 = CC_DESIGN_APPROVAL ( #129, ( #192 ) ) ;
#117 = DATE_AND_TIME ( #31, #186 ) ;
#118 = ORIENTED_EDGE ( 'NONE', *, *, #137, .T. ) ;
#119 = EDGE_CURVE ( 'NONE', #111, #111, #183, .T. ) ;
#120 = SECURITY_CLASSIFICATION_LEVEL ( 'unclassified' ) ;
#121 = LOCAL_TIME ( 8, 10, 2.000000000000000000, #179 ) ;
#122 = EDGE_LOOP ( 'NONE', ( #30 ) ) ;
#123 = VERTEX_POINT ( 'NONE', #90 ) ;
#124 = PRODUCT_DEFINITION_SHAPE ( 'NONE', 'NONE',  #192 ) ;
#125 = APPROVAL ( #182, 'UNSPECIFIED' ) ;
#126 = ORIENTED_EDGE ( 'NONE', *, *, #86, .T. ) ;
#127 = AXIS2_PLACEMENT_3D ( 'NONE', #82, #144, #172 ) ;
#128 = FACE_BOUND ( 'NONE', #17, .T. ) ;
#129 = APPROVAL ( #61, 'UNSPECIFIED' ) ;
#130 = CARTESIAN_POINT ( 'NONE',  ( -2.137915722948479358E-32, 7.498798913309288894E-34, -6.123233995736766344E-18 ) ) ;
#131 = EDGE_LOOP ( 'NONE', ( #41 ) ) ;
#132 = DIRECTION ( 'NONE',  ( -4.275831445896958607E-31, -1.000000000000000000, -1.224646799147353207E-16 ) ) ;
#133 = VERTEX_POINT ( 'NONE', #93 ) ;
#134 =( NAMED_UNIT ( * ) PLANE_ANGLE_UNIT ( ) SI_UNIT ( $, .RADIAN. ) );
#135 =( NAMED_UNIT ( * ) SI_UNIT ( $, .STERADIAN. ) SOLID_ANGLE_UNIT ( ) );
#136 = CONICAL_SURFACE ( 'NONE', #15, 0.07499999999999999722, 0.4363323129985833271 ) ;
#137 = EDGE_CURVE ( 'NONE', #6, #6, #146, .T. ) ;
#138 = CARTESIAN_POINT ( 'NONE',  ( 0.0000000000000000000, 0.0000000000000000000, 0.0000000000000000000 ) ) ;
#139 = DIRECTION ( 'NONE',  ( 0.0000000000000000000, 1.000000000000000000, 0.0000000000000000000 ) ) ;
#140 = PERSON_AND_ORGANIZATION_ROLE ( 'classification_officer' ) ;
#141 = PERSON_AND_ORGANIZATION ( #103, #4 ) ;
#142 = APPROVAL ( #199, 'UNSPECIFIED' ) ;
#143 = FACE_OUTER_BOUND ( 'NONE', #215, .T. ) ;
#144 = DIRECTION ( 'NONE',  ( 3.491481338843133355E-15, -1.224646799147353207E-16, 1.000000000000000000 ) ) ;
#145 = ADVANCED_FACE ( 'NONE', ( #87 ), #54, .F. ) ;
#146 = CIRCLE ( 'NONE', #164, 1.500000000000003331 ) ;
#147 = PLANE ( 'NONE',  #152 ) ;
#148 = ORIENTED_EDGE ( 'NONE', *, *, #119, .T. ) ;
#149 = DIRECTION ( 'NONE',  ( -3.491481338843133355E-15, 1.224646799147353207E-16, -1.000000000000000000 ) ) ;
#150 = DIRECTION ( 'NONE',  ( -3.491481338843133355E-15, 1.224646799147353207E-16, -1.000000000000000000 ) ) ;
#151 = APPLICATION_PROTOCOL_DEFINITION ( 'international standard', 'config_control_design', 1994, #36 ) ;
#152 = AXIS2_PLACEMENT_3D ( 'NONE', #40, #165, #108 ) ;
#153 = CARTESIAN_POINT ( 'NONE',  ( 1.316288464743861212E-13, 1.499999999999998668, 37.69999999999999574 ) ) ;
#154 = CC_DESIGN_DATE_AND_TIME_ASSIGNMENT ( #198, #28, ( #192 ) ) ;
#155 = CALENDAR_DATE ( 2021, 24, 11 ) ;
#156 = SECURITY_CLASSIFICATION ( '', '', #120 ) ;
#157 = TOROIDAL_SURFACE ( 'NONE', #10, 8.750000000000000000, 8.000000000000000000 ) ;
#158 = APPROVAL_DATE_TIME ( #78, #142 ) ;
#159 = CARTESIAN_POINT ( 'NONE',  ( 1.326762908760390423E-13, -4.653657836759941941E-15, 38.00000000000000000 ) ) ;
#160 = ORIENTED_EDGE ( 'NONE', *, *, #216, .T. ) ;
#161 = AXIS2_PLACEMENT_3D ( 'NONE', #138, #73, #178 ) ;
#162 = ADVANCED_FACE ( 'NONE', ( #83 ), #106, .F. ) ;
#163 = MANIFOLD_SOLID_BREP ( 'Corps-Déplacer/Copier1[1]', #180 ) ;
#164 = AXIS2_PLACEMENT_3D ( 'NONE', #19, #201, #24 ) ;
#165 = DIRECTION ( 'NONE',  ( 3.491481338843133355E-15, -1.224646799147353207E-16, 1.000000000000000000 ) ) ;
#166 = ADVANCED_FACE ( 'NONE', ( #84, #128 ), #136, .T. ) ;
#167 = DIRECTION ( 'NONE',  ( -3.491481338843133355E-15, 1.224646799147353207E-16, -1.000000000000000000 ) ) ;
#168 = FACE_OUTER_BOUND ( 'NONE', #218, .T. ) ;
#169 = DESIGN_CONTEXT ( 'detailed design', #20, 'design' ) ;
#170 =( GEOMETRIC_REPRESENTATION_CONTEXT ( 3 ) GLOBAL_UNCERTAINTY_ASSIGNED_CONTEXT ( ( #39 ) ) GLOBAL_UNIT_ASSIGNED_CONTEXT ( ( #228, #134, #135 ) ) REPRESENTATION_CONTEXT ( 'NONE', 'WORKASPACE' ) );
#171 = DIRECTION ( 'NONE',  ( 0.0000000000000000000, 1.000000000000000000, 0.0000000000000000000 ) ) ;
#172 = DIRECTION ( 'NONE',  ( -4.275831445896958607E-31, -1.000000000000000000, -1.224646799147353207E-16 ) ) ;
#173 = CC_DESIGN_PERSON_AND_ORGANIZATION_ASSIGNMENT ( #12, #140, ( #156 ) ) ;
#174 = PERSON_AND_ORGANIZATION ( #103, #4 ) ;
#175 = AXIS2_PLACEMENT_3D ( 'NONE', #188, #150, #243 ) ;
#176 = MECHANICAL_CONTEXT ( 'NONE', #36, 'mechanical' ) ;
#177 = EDGE_CURVE ( 'NONE', #45, #45, #63, .T. ) ;
#178 = DIRECTION ( 'NONE',  ( 1.000000000000000000, 0.0000000000000000000, 0.0000000000000000000 ) ) ;
#179 = COORDINATED_UNIVERSAL_TIME_OFFSET ( 1, 0, .AHEAD. ) ;
#180 = CLOSED_SHELL ( 'NONE', ( #162, #114, #75, #241, #62, #145 ) ) ;
#181 = EDGE_LOOP ( 'NONE', ( #66 ) ) ;
#182 = APPROVAL_STATUS ( 'not_yet_approved' ) ;
#183 = CIRCLE ( 'NONE', #49, 1.499999999999996669 ) ;
#184 = COORDINATED_UNIVERSAL_TIME_OFFSET ( 1, 0, .AHEAD. ) ;
#185 = PLANE ( 'NONE',  #127 ) ;
#186 = LOCAL_TIME ( 8, 10, 2.000000000000000000, #184 ) ;
#187 = FACE_OUTER_BOUND ( 'NONE', #52, .T. ) ;
#188 = CARTESIAN_POINT ( 'NONE',  ( 0.0000000000000000000, 0.0000000000000000000, 0.0000000000000000000 ) ) ;
#189 = CARTESIAN_POINT ( 'NONE',  ( -2.137915722948479358E-32, 7.498798913309288894E-34, -6.123233995736766344E-18 ) ) ;
#190 = LOCAL_TIME ( 8, 10, 2.000000000000000000, #101 ) ;
#191 = CARTESIAN_POINT ( 'NONE',  ( 1.326762908760390423E-13, 8.998558695971103225E-33, 38.00000000000000000 ) ) ;
#192 = PRODUCT_DEFINITION ( 'UNKNOWN', '', #197, #169 ) ;
#193 = CARTESIAN_POINT ( 'NONE',  ( 8.030407079339206717E-15, -2.816687638038912056E-16, 2.299999999999999822 ) ) ;
#194 = EDGE_LOOP ( 'NONE', ( #32 ) ) ;
#195 = ADVANCED_FACE ( 'NONE', ( #168 ), #185, .T. ) ;
#196 = CARTESIAN_POINT ( 'NONE',  ( 5.054066478435866660E-15, 0.7499999999999997780, 1.447542171343948691 ) ) ;
#197 = PRODUCT_DEFINITION_FORMATION_WITH_SPECIFIED_SOURCE ( 'ANY', '', #44, .NOT_KNOWN. ) ;
#198 = DATE_AND_TIME ( #155, #77 ) ;
#199 = APPROVAL_STATUS ( 'not_yet_approved' ) ;
#200 = CC_DESIGN_PERSON_AND_ORGANIZATION_ASSIGNMENT ( #110, #89, ( #192 ) ) ;
#201 = DIRECTION ( 'NONE',  ( -3.491481338843133355E-15, 1.224646799147353207E-16, -1.000000000000000000 ) ) ;
#202 = ORIENTED_EDGE ( 'NONE', *, *, #99, .T. ) ;
#203 = EDGE_LOOP ( 'NONE', ( #98 ) ) ;
#204 = CONICAL_SURFACE ( 'NONE', #217, 1.200000000000003286, 0.7853981633974453924 ) ;
#205 = FACE_OUTER_BOUND ( 'NONE', #220, .T. ) ;
#206 = FACE_OUTER_BOUND ( 'NONE', #105, .T. ) ;
#207 = DIRECTION ( 'NONE',  ( 3.491481338843133355E-15, -1.224646799147353207E-16, 1.000000000000000000 ) ) ;
#208 = LOCAL_TIME ( 8, 10, 2.000000000000000000, #94 ) ;
#209 = PRODUCT_RELATED_PRODUCT_CATEGORY ( 'detail', '', ( #44 ) ) ;
#210 = CARTESIAN_POINT ( 'NONE',  ( 5.054066478435866660E-15, 0.7499999999999997780, 1.447542171343948691 ) ) ;
#211 = CALENDAR_DATE ( 2021, 24, 11 ) ;
#212 = CIRCLE ( 'NONE', #236, 0.7500000000000000000 ) ;
#213 = CC_DESIGN_PERSON_AND_ORGANIZATION_ASSIGNMENT ( #174, #3, ( #197 ) ) ;
#214 = AXIS2_PLACEMENT_3D ( 'NONE', #67, #219, #53 ) ;
#215 = EDGE_LOOP ( 'NONE', ( #22 ) ) ;
#216 = EDGE_CURVE ( 'NONE', #133, #133, #26, .T. ) ;
#217 = AXIS2_PLACEMENT_3D ( 'NONE', #159, #1, #171 ) ;
#218 = EDGE_LOOP ( 'NONE', ( #88 ) ) ;
#219 = DIRECTION ( 'NONE',  ( -3.491481338843133355E-15, 1.224646799147353207E-16, -1.000000000000000000 ) ) ;
#220 = EDGE_LOOP ( 'NONE', ( #148 ) ) ;
#221 = DIRECTION ( 'NONE',  ( -3.491481338843133355E-15, 1.224646799147353207E-16, -1.000000000000000000 ) ) ;
#222 = AXIS2_PLACEMENT_3D ( 'NONE', #193, #238, #139 ) ;
#223 = DIRECTION ( 'NONE',  ( 0.0000000000000000000, 1.000000000000000000, 0.0000000000000000000 ) ) ;
#224 = DIRECTION ( 'NONE',  ( 0.0000000000000000000, 1.000000000000000000, 0.0000000000000000000 ) ) ;
#225 = DIRECTION ( 'NONE',  ( 3.491481338843133355E-15, -1.224646799147353207E-16, 1.000000000000000000 ) ) ;
#226 = AXIS2_PLACEMENT_3D ( 'NONE', #71, #207, #132 ) ;
#227 = COORDINATED_UNIVERSAL_TIME_OFFSET ( 1, 0, .AHEAD. ) ;
#228 =( LENGTH_UNIT ( ) NAMED_UNIT ( * ) SI_UNIT ( .MILLI., .METRE. ) );
#229 = PERSON_AND_ORGANIZATION ( #103, #4 ) ;
#230 = AXIS2_PLACEMENT_3D ( 'NONE', #191, #107, #57 ) ;
#231 = PERSON_AND_ORGANIZATION_ROLE ( 'creator' ) ;
#232 = CC_DESIGN_DATE_AND_TIME_ASSIGNMENT ( #100, #50, ( #156 ) ) ;
#233 = ADVANCED_FACE ( 'NONE', ( #187 ), #147, .F. ) ;
#234 = CIRCLE ( 'NONE', #81, 0.7500000000000000000 ) ;
#235 = EDGE_LOOP ( 'NONE', ( #69 ) ) ;
#236 = AXIS2_PLACEMENT_3D ( 'NONE', #33, #239, #72 ) ;
#237 = CARTESIAN_POINT ( 'NONE',  ( 5.054066478435866660E-15, -1.772727886767176174E-16, 1.447542171343948691 ) ) ;
#238 = DIRECTION ( 'NONE',  ( -3.491481338843133355E-15, 1.224646799147353207E-16, -1.000000000000000000 ) ) ;
#239 = DIRECTION ( 'NONE',  ( -3.491481338843133355E-15, 1.224646799147353207E-16, -1.000000000000000000 ) ) ;
#240 = DIRECTION ( 'NONE',  ( 4.275831445896958607E-31, 1.000000000000000000, 1.224646799147352961E-16 ) ) ;
#241 = ADVANCED_FACE ( 'NONE', ( #56, #206 ), #38, .T. ) ;
#242 = MANIFOLD_SOLID_BREP ( 'Corps-Déplacer/Copier1[2]', #47 ) ;
#243 = DIRECTION ( 'NONE',  ( 4.275831445896958607E-31, 1.000000000000000000, 1.224646799147353207E-16 ) ) ;
ENDSEC;
END-ISO-10303-21;
