ISO-10303-21;
HEADER;
FILE_DESCRIPTION (( 'STEP AP203' ),
    '1' );
FILE_NAME ('979366.step',
    '2021-11-24T07:10:01',
    ( '' ),
    ( '' ),
    'SwSTEP 2.0',
    'SolidWorks 2019',
    '' );
FILE_SCHEMA (( 'CONFIG_CONTROL_DESIGN' ));
ENDSEC;

DATA;
#1 = ADVANCED_FACE ( 'NONE', ( #219 ), #88, .F. ) ;
#2 = CARTESIAN_POINT ( 'NONE',  ( 0.0000000000000000000, 0.0000000000000000000, 0.0000000000000000000 ) ) ;
#3 = PLANE ( 'NONE',  #176 ) ;
#4 = AXIS2_PLACEMENT_3D ( 'NONE', #113, #60, #61 ) ;
#5 = CALENDAR_DATE ( 2021, 24, 11 ) ;
#6 = CARTESIAN_POINT ( 'NONE',  ( 1.983837810246228641E-14, 1.499999999999996225, 5.681937314617162116 ) ) ;
#7 = AXIS2_PLACEMENT_3D ( 'NONE', #228, #76, #171 ) ;
#8 = ORIENTED_EDGE ( 'NONE', *, *, #202, .T. ) ;
#9 = SHAPE_DEFINITION_REPRESENTATION ( #142, #80 ) ;
#10 = PERSON_AND_ORGANIZATION ( #117, #223 ) ;
#11 = CLOSED_SHELL ( 'NONE', ( #31, #82, #124, #74, #46, #1 ) ) ;
#12 = APPROVAL_DATE_TIME ( #143, #169 ) ;
#13 = DIRECTION ( 'NONE',  ( 4.275831445896958607E-31, 1.000000000000000000, 1.224646799147353207E-16 ) ) ;
#14 = EDGE_LOOP ( 'NONE', ( #120 ) ) ;
#15 = DIRECTION ( 'NONE',  ( -4.275831445896958607E-31, -1.000000000000000000, -1.224646799147353207E-16 ) ) ;
#16 = DIRECTION ( 'NONE',  ( 0.0000000000000000000, 1.000000000000000000, 0.0000000000000000000 ) ) ;
#17 = ORIENTED_EDGE ( 'NONE', *, *, #235, .T. ) ;
#18 = CARTESIAN_POINT ( 'NONE',  ( 5.241254125785342355E-15, -4.340147582636425084E-16, 1.501154844356687112 ) ) ;
#19 = APPROVAL_PERSON_ORGANIZATION ( #210, #97, #23 ) ;
#20 = DIRECTION ( 'NONE',  ( 3.491481338843133355E-15, -1.224646799147353207E-16, 1.000000000000000000 ) ) ;
#21 = VERTEX_POINT ( 'NONE', #41 ) ;
#22 = PRODUCT_DEFINITION_FORMATION_WITH_SPECIFIED_SOURCE ( 'ANY', '', #27, .NOT_KNOWN. ) ;
#23 = APPROVAL_ROLE ( '' ) ;
#24 = DIRECTION ( 'NONE',  ( 0.0000000000000000000, 1.000000000000000000, 0.0000000000000000000 ) ) ;
#25 = APPROVAL_ROLE ( '' ) ;
#26 = CIRCLE ( 'NONE', #109, 1.200000000000003286 ) ;
#27 = PRODUCT ( '979366', '979366', '', ( #229 ) ) ;
#28 = ORIENTED_EDGE ( 'NONE', *, *, #146, .T. ) ;
#29 = CC_DESIGN_SECURITY_CLASSIFICATION ( #190, ( #22 ) ) ;
#30 = DATE_TIME_ROLE ( 'classification_date' ) ;
#31 = ADVANCED_FACE ( 'NONE', ( #241 ), #68, .F. ) ;
#32 = CARTESIAN_POINT ( 'NONE',  ( 8.030407079339206717E-15, -2.816687638038912056E-16, 2.299999999999999822 ) ) ;
#33 = CIRCLE ( 'NONE', #156, 1.500000000000003331 ) ;
#34 = DIRECTION ( 'NONE',  ( -3.491481338843133355E-15, 1.224646799147353207E-16, -1.000000000000000000 ) ) ;
#35 = FACE_BOUND ( 'NONE', #234, .T. ) ;
#36 = CARTESIAN_POINT ( 'NONE',  ( 1.983837810246228641E-14, -6.958366345301815590E-16, 5.681937314617162116 ) ) ;
#37 = CC_DESIGN_PERSON_AND_ORGANIZATION_ASSIGNMENT ( #10, #81, ( #22 ) ) ;
#38 = EDGE_LOOP ( 'NONE', ( #28 ) ) ;
#39 = CYLINDRICAL_SURFACE ( 'NONE', #153, 0.7500000000000004441 ) ;
#40 = CONICAL_SURFACE ( 'NONE', #165, 0.05000000000000000278, 0.4363323129985833271 ) ;
#41 = CARTESIAN_POINT ( 'NONE',  ( 8.030407079339206717E-15, 0.7500000000000006661, 2.299999999999999822 ) ) ;
#42 = VERTEX_POINT ( 'NONE', #175 ) ;
#43 = APPLICATION_PROTOCOL_DEFINITION ( 'international standard', 'config_control_design', 1994, #178 ) ;
#44 = AXIS2_PLACEMENT_3D ( 'NONE', #32, #106, #16 ) ;
#45 =( NAMED_UNIT ( * ) PLANE_ANGLE_UNIT ( ) SI_UNIT ( $, .RADIAN. ) );
#46 = ADVANCED_FACE ( 'NONE', ( #226, #71 ), #64, .T. ) ;
#47 = DIRECTION ( 'NONE',  ( -3.491481338843133355E-15, 1.224646799147353207E-16, -1.000000000000000000 ) ) ;
#48 = CIRCLE ( 'NONE', #104, 0.7500000000000000000 ) ;
#49 = APPROVAL_ROLE ( '' ) ;
#50 = COORDINATED_UNIVERSAL_TIME_OFFSET ( 1, 0, .AHEAD. ) ;
#51 = CC_DESIGN_PERSON_AND_ORGANIZATION_ASSIGNMENT ( #207, #154, ( #27 ) ) ;
#52 = DIRECTION ( 'NONE',  ( 3.491481338843133355E-15, -1.224646799147353207E-16, 1.000000000000000000 ) ) ;
#53 = DIRECTION ( 'NONE',  ( 4.275831445896959482E-31, 1.000000000000000000, 1.224646799147353207E-16 ) ) ;
#54 = CC_DESIGN_APPROVAL ( #169, ( #22 ) ) ;
#55 = DIRECTION ( 'NONE',  ( 3.491481338843133355E-15, -1.224646799147353207E-16, 1.000000000000000000 ) ) ;
#56 = EDGE_LOOP ( 'NONE', ( #240 ) ) ;
#57 = CC_DESIGN_PERSON_AND_ORGANIZATION_ASSIGNMENT ( #197, #66, ( #101 ) ) ;
#58 = FACE_OUTER_BOUND ( 'NONE', #162, .T. ) ;
#59 = CARTESIAN_POINT ( 'NONE',  ( 5.241254125785342355E-15, 0.7499999999999997780, 1.501154844356687335 ) ) ;
#60 = DIRECTION ( 'NONE',  ( -3.491481338843133355E-15, 1.224646799147353207E-16, -1.000000000000000000 ) ) ;
#61 = DIRECTION ( 'NONE',  ( 4.275831445896958607E-31, 1.000000000000000000, 1.224646799147353207E-16 ) ) ;
#62 = PERSON_AND_ORGANIZATION_ROLE ( 'design_supplier' ) ;
#63 = DATE_AND_TIME ( #85, #158 ) ;
#64 = CONICAL_SURFACE ( 'NONE', #79, 1.200000000000003286, 0.7853981633974453924 ) ;
#65 = EDGE_LOOP ( 'NONE', ( #184 ) ) ;
#66 = PERSON_AND_ORGANIZATION_ROLE ( 'creator' ) ;
#67 = EDGE_CURVE ( 'NONE', #75, #75, #194, .T. ) ;
#68 = PLANE ( 'NONE',  #180 ) ;
#69 = ORIENTED_EDGE ( 'NONE', *, *, #206, .T. ) ;
#70 = EDGE_LOOP ( 'NONE', ( #69 ) ) ;
#71 = FACE_BOUND ( 'NONE', #38, .T. ) ;
#72 = DIRECTION ( 'NONE',  ( 4.275831445896958607E-31, 1.000000000000000000, 1.224646799147353207E-16 ) ) ;
#73 =( LENGTH_UNIT ( ) NAMED_UNIT ( * ) SI_UNIT ( .MILLI., .METRE. ) );
#74 = ADVANCED_FACE ( 'NONE', ( #182, #242 ), #147, .T. ) ;
#75 = VERTEX_POINT ( 'NONE', #6 ) ;
#76 = DIRECTION ( 'NONE',  ( 0.0000000000000000000, 0.0000000000000000000, 1.000000000000000000 ) ) ;
#77 = APPROVAL_STATUS ( 'not_yet_approved' ) ;
#78 = CC_DESIGN_PERSON_AND_ORGANIZATION_ASSIGNMENT ( #177, #62, ( #22 ) ) ;
#79 = AXIS2_PLACEMENT_3D ( 'NONE', #222, #130, #168 ) ;
#80 = ADVANCED_BREP_SHAPE_REPRESENTATION ( '979366', ( #195, #193, #7 ), #172 ) ;
#81 = PERSON_AND_ORGANIZATION_ROLE ( 'creator' ) ;
#82 = ADVANCED_FACE ( 'NONE', ( #125, #170 ), #39, .T. ) ;
#83 = APPROVAL_DATE_TIME ( #196, #138 ) ;
#84 = LOCAL_TIME ( 8, 10, 1.000000000000000000, #161 ) ;
#85 = CALENDAR_DATE ( 2021, 24, 11 ) ;
#86 = CARTESIAN_POINT ( 'NONE',  ( 1.326762908760390423E-13, -4.653657836759941941E-15, 38.00000000000000000 ) ) ;
#87 = AXIS2_PLACEMENT_3D ( 'NONE', #36, #149, #166 ) ;
#88 = PLANE ( 'NONE',  #200 ) ;
#89 = ADVANCED_FACE ( 'NONE', ( #199 ), #150, .F. ) ;
#90 = CARTESIAN_POINT ( 'NONE',  ( 5.241254125785342355E-15, -1.838384475165960349E-16, 1.501154844356687335 ) ) ;
#91 = TOROIDAL_SURFACE ( 'NONE', #218, 8.750000000000000000, 8.000000000000000000 ) ;
#92 = EDGE_LOOP ( 'NONE', ( #181 ) ) ;
#93 = ORIENTED_EDGE ( 'NONE', *, *, #191, .F. ) ;
#94 = DIRECTION ( 'NONE',  ( 0.0000000000000000000, 1.000000000000000000, 0.0000000000000000000 ) ) ;
#95 = CIRCLE ( 'NONE', #44, 0.7500000000000009992 ) ;
#96 = COORDINATED_UNIVERSAL_TIME_OFFSET ( 1, 0, .AHEAD. ) ;
#97 = APPROVAL ( #77, 'UNSPECIFIED' ) ;
#98 = CC_DESIGN_APPROVAL ( #97, ( #101 ) ) ;
#99 = SECURITY_CLASSIFICATION_LEVEL ( 'unclassified' ) ;
#100 = EDGE_LOOP ( 'NONE', ( #8 ) ) ;
#101 = PRODUCT_DEFINITION ( 'UNKNOWN', '', #22, #225 ) ;
#102 = PERSON_AND_ORGANIZATION ( #117, #223 ) ;
#103 = CARTESIAN_POINT ( 'NONE',  ( 1.326762908760390423E-13, 8.998558695971103225E-33, 38.00000000000000000 ) ) ;
#104 = AXIS2_PLACEMENT_3D ( 'NONE', #90, #47, #24 ) ;
#105 = EDGE_LOOP ( 'NONE', ( #116 ) ) ;
#106 = DIRECTION ( 'NONE',  ( -3.491481338843133355E-15, 1.224646799147353207E-16, -1.000000000000000000 ) ) ;
#107 = DIRECTION ( 'NONE',  ( -3.491481338843133355E-15, 1.224646799147353207E-16, -1.000000000000000000 ) ) ;
#108 = ADVANCED_FACE ( 'NONE', ( #167, #35 ), #40, .T. ) ;
#109 = AXIS2_PLACEMENT_3D ( 'NONE', #86, #145, #185 ) ;
#110 = DIRECTION ( 'NONE',  ( -3.491481338843133355E-15, 1.224646799147353207E-16, -1.000000000000000000 ) ) ;
#111 = VERTEX_POINT ( 'NONE', #118 ) ;
#112 = CARTESIAN_POINT ( 'NONE',  ( 5.241254125785342355E-15, 0.7499999999999997780, 1.501154844356687335 ) ) ;
#113 = CARTESIAN_POINT ( 'NONE',  ( -1.710332578358783705E-32, 5.999039130647431458E-34, -4.898587196589413537E-18 ) ) ;
#114 = CC_DESIGN_APPROVAL ( #138, ( #190 ) ) ;
#115 = APPROVAL_DATE_TIME ( #134, #97 ) ;
#116 = ORIENTED_EDGE ( 'NONE', *, *, #202, .F. ) ;
#117 = PERSON ( 'UNSPECIFIED', 'UNSPECIFIED', 'UNSPECIFIED', ('UNSPECIFIED'), ('UNSPECIFIED'), ('UNSPECIFIED') ) ;
#118 = CARTESIAN_POINT ( 'NONE',  ( 1.326762908760390423E-13, 1.199999999999998845, 38.00000000000000000 ) ) ;
#119 = CALENDAR_DATE ( 2021, 24, 11 ) ;
#120 = ORIENTED_EDGE ( 'NONE', *, *, #235, .F. ) ;
#121 = APPLICATION_CONTEXT ( 'configuration controlled 3d designs of mechanical parts and assemblies' ) ;
#122 = COORDINATED_UNIVERSAL_TIME_OFFSET ( 1, 0, .AHEAD. ) ;
#123 = DIRECTION ( 'NONE',  ( -4.275831445896958607E-31, -1.000000000000000000, -1.224646799147353207E-16 ) ) ;
#124 = ADVANCED_FACE ( 'NONE', ( #224, #58 ), #91, .F. ) ;
#125 = FACE_OUTER_BOUND ( 'NONE', #92, .T. ) ;
#126 = LOCAL_TIME ( 8, 10, 1.000000000000000000, #96 ) ;
#127 = DIRECTION ( 'NONE',  ( -4.275831445896958607E-31, -1.000000000000000000, -1.224646799147353207E-16 ) ) ;
#128 = ORIENTED_EDGE ( 'NONE', *, *, #67, .T. ) ;
#129 = CARTESIAN_POINT ( 'NONE',  ( 8.030407079339206717E-15, 0.0000000000000000000, 2.299999999999999822 ) ) ;
#130 = DIRECTION ( 'NONE',  ( -3.491481338843133355E-15, 1.224646799147353207E-16, -1.000000000000000000 ) ) ;
#131 = APPROVAL_PERSON_ORGANIZATION ( #102, #138, #49 ) ;
#132 = CARTESIAN_POINT ( 'NONE',  ( 1.316288464743861212E-13, -4.616918432785521081E-15, 37.69999999999999574 ) ) ;
#133 = VERTEX_POINT ( 'NONE', #112 ) ;
#134 = DATE_AND_TIME ( #5, #126 ) ;
#135 = AXIS2_PLACEMENT_3D ( 'NONE', #220, #239, #53 ) ;
#136 = ORIENTED_EDGE ( 'NONE', *, *, #230, .F. ) ;
#137 = DIRECTION ( 'NONE',  ( -3.491481338843133355E-15, 1.224646799147353207E-16, -1.000000000000000000 ) ) ;
#138 = APPROVAL ( #213, 'UNSPECIFIED' ) ;
#139 = PERSON_AND_ORGANIZATION_ROLE ( 'classification_officer' ) ;
#140 = COORDINATED_UNIVERSAL_TIME_OFFSET ( 1, 0, .AHEAD. ) ;
#141 = CIRCLE ( 'NONE', #4, 0.05000000000000000278 ) ;
#142 = PRODUCT_DEFINITION_SHAPE ( 'NONE', 'NONE',  #101 ) ;
#143 = DATE_AND_TIME ( #215, #243 ) ;
#144 = PERSON_AND_ORGANIZATION ( #117, #223 ) ;
#145 = DIRECTION ( 'NONE',  ( -3.491481338843133355E-15, 1.224646799147353207E-16, -1.000000000000000000 ) ) ;
#146 = EDGE_CURVE ( 'NONE', #111, #111, #26, .T. ) ;
#147 = CYLINDRICAL_SURFACE ( 'NONE', #135, 1.500000000000000000 ) ;
#148 = CARTESIAN_POINT ( 'NONE',  ( -1.710332578358783705E-32, 5.999039130647431458E-34, -4.898587196589413537E-18 ) ) ;
#149 = DIRECTION ( 'NONE',  ( -3.491481338843133355E-15, 1.224646799147353207E-16, -1.000000000000000000 ) ) ;
#150 = PLANE ( 'NONE',  #186 ) ;
#151 = CC_DESIGN_DATE_AND_TIME_ASSIGNMENT ( #63, #30, ( #190 ) ) ;
#152 =( NAMED_UNIT ( * ) SI_UNIT ( $, .STERADIAN. ) SOLID_ANGLE_UNIT ( ) );
#153 = AXIS2_PLACEMENT_3D ( 'NONE', #2, #107, #72 ) ;
#154 = PERSON_AND_ORGANIZATION_ROLE ( 'design_owner' ) ;
#155 = DIRECTION ( 'NONE',  ( -3.491481338843133355E-15, 1.224646799147353207E-16, -1.000000000000000000 ) ) ;
#156 = AXIS2_PLACEMENT_3D ( 'NONE', #132, #137, #188 ) ;
#157 = APPLICATION_PROTOCOL_DEFINITION ( 'international standard', 'config_control_design', 1994, #121 ) ;
#158 = LOCAL_TIME ( 8, 10, 1.000000000000000000, #122 ) ;
#159 = APPROVAL_STATUS ( 'not_yet_approved' ) ;
#160 = EDGE_LOOP ( 'NONE', ( #17 ) ) ;
#161 = COORDINATED_UNIVERSAL_TIME_OFFSET ( 1, 0, .AHEAD. ) ;
#162 = EDGE_LOOP ( 'NONE', ( #93 ) ) ;
#163 = APPROVAL_PERSON_ORGANIZATION ( #144, #169, #25 ) ;
#164 = ORIENTED_EDGE ( 'NONE', *, *, #230, .T. ) ;
#165 = AXIS2_PLACEMENT_3D ( 'NONE', #148, #55, #127 ) ;
#166 = DIRECTION ( 'NONE',  ( 0.0000000000000000000, 1.000000000000000000, 0.0000000000000000000 ) ) ;
#167 = FACE_OUTER_BOUND ( 'NONE', #100, .T. ) ;
#168 = DIRECTION ( 'NONE',  ( 0.0000000000000000000, 1.000000000000000000, 0.0000000000000000000 ) ) ;
#169 = APPROVAL ( #159, 'UNSPECIFIED' ) ;
#170 = FACE_OUTER_BOUND ( 'NONE', #14, .T. ) ;
#171 = DIRECTION ( 'NONE',  ( 1.000000000000000000, 0.0000000000000000000, 0.0000000000000000000 ) ) ;
#172 =( GEOMETRIC_REPRESENTATION_CONTEXT ( 3 ) GLOBAL_UNCERTAINTY_ASSIGNED_CONTEXT ( ( #183 ) ) GLOBAL_UNIT_ASSIGNED_CONTEXT ( ( #73, #45, #152 ) ) REPRESENTATION_CONTEXT ( 'NONE', 'WORKASPACE' ) );
#173 = DIRECTION ( 'NONE',  ( -4.275831445896958607E-31, -1.000000000000000000, -1.224646799147353207E-16 ) ) ;
#174 = CARTESIAN_POINT ( 'NONE',  ( 5.241254125785342355E-15, -1.838384475165960349E-16, 1.501154844356687335 ) ) ;
#175 = CARTESIAN_POINT ( 'NONE',  ( 1.316288464743861212E-13, 1.499999999999998668, 37.69999999999999574 ) ) ;
#176 = AXIS2_PLACEMENT_3D ( 'NONE', #192, #20, #173 ) ;
#177 = PERSON_AND_ORGANIZATION ( #117, #223 ) ;
#178 = APPLICATION_CONTEXT ( 'configuration controlled 3d designs of mechanical parts and assemblies' ) ;
#179 = ORIENTED_EDGE ( 'NONE', *, *, #206, .F. ) ;
#180 = AXIS2_PLACEMENT_3D ( 'NONE', #18, #52, #123 ) ;
#181 = ORIENTED_EDGE ( 'NONE', *, *, #191, .T. ) ;
#182 = FACE_OUTER_BOUND ( 'NONE', #56, .T. ) ;
#183 = UNCERTAINTY_MEASURE_WITH_UNIT (LENGTH_MEASURE( 1.000000000000000082E-05 ), #73, 'distance_accuracy_value', 'NONE');
#184 = ORIENTED_EDGE ( 'NONE', *, *, #146, .F. ) ;
#185 = DIRECTION ( 'NONE',  ( 0.0000000000000000000, 1.000000000000000000, 0.0000000000000000000 ) ) ;
#186 = AXIS2_PLACEMENT_3D ( 'NONE', #187, #198, #15 ) ;
#187 = CARTESIAN_POINT ( 'NONE',  ( -8.551662891793918527E-33, 2.999519565323715729E-34, -2.449293598294706769E-18 ) ) ;
#188 = DIRECTION ( 'NONE',  ( 0.0000000000000000000, 1.000000000000000000, 0.0000000000000000000 ) ) ;
#189 = VERTEX_POINT ( 'NONE', #212 ) ;
#190 = SECURITY_CLASSIFICATION ( '', '', #99 ) ;
#191 = EDGE_CURVE ( 'NONE', #21, #21, #95, .T. ) ;
#192 = CARTESIAN_POINT ( 'NONE',  ( 5.241254125785342355E-15, -4.340147582636425084E-16, 1.501154844356687112 ) ) ;
#193 = MANIFOLD_SOLID_BREP ( 'Corps-Déplacer/Copier1[2]', #214 ) ;
#194 = CIRCLE ( 'NONE', #87, 1.499999999999996669 ) ;
#195 = MANIFOLD_SOLID_BREP ( 'Corps-Déplacer/Copier1[1]', #11 ) ;
#196 = DATE_AND_TIME ( #119, #84 ) ;
#197 = PERSON_AND_ORGANIZATION ( #117, #223 ) ;
#198 = DIRECTION ( 'NONE',  ( 3.491481338843133355E-15, -1.224646799147353207E-16, 1.000000000000000000 ) ) ;
#199 = FACE_OUTER_BOUND ( 'NONE', #70, .T. ) ;
#200 = AXIS2_PLACEMENT_3D ( 'NONE', #103, #34, #13 ) ;
#201 = DIRECTION ( 'NONE',  ( 4.355100981429076768E-31, 1.000000000000000000, 1.224646799147353207E-16 ) ) ;
#202 = EDGE_CURVE ( 'NONE', #133, #133, #48, .T. ) ;
#203 = EDGE_LOOP ( 'NONE', ( #164 ) ) ;
#204 = PRODUCT_RELATED_PRODUCT_CATEGORY ( 'detail', '', ( #27 ) ) ;
#205 = EDGE_LOOP ( 'NONE', ( #128 ) ) ;
#206 = EDGE_CURVE ( 'NONE', #189, #189, #141, .T. ) ;
#207 = PERSON_AND_ORGANIZATION ( #117, #223 ) ;
#208 = VERTEX_POINT ( 'NONE', #59 ) ;
#209 = AXIS2_PLACEMENT_3D ( 'NONE', #174, #155, #94 ) ;
#210 = PERSON_AND_ORGANIZATION ( #117, #223 ) ;
#211 = CC_DESIGN_DATE_AND_TIME_ASSIGNMENT ( #231, #236, ( #101 ) ) ;
#212 = CARTESIAN_POINT ( 'NONE',  ( 4.275831445896955842E-33, 0.05000000000000000278, 1.224646799147352614E-18 ) ) ;
#213 = APPROVAL_STATUS ( 'not_yet_approved' ) ;
#214 = CLOSED_SHELL ( 'NONE', ( #89, #108, #221 ) ) ;
#215 = CALENDAR_DATE ( 2021, 24, 11 ) ;
#216 = EDGE_LOOP ( 'NONE', ( #136 ) ) ;
#217 = PERSON_AND_ORGANIZATION ( #117, #223 ) ;
#218 = AXIS2_PLACEMENT_3D ( 'NONE', #129, #110, #201 ) ;
#219 = FACE_OUTER_BOUND ( 'NONE', #65, .T. ) ;
#220 = CARTESIAN_POINT ( 'NONE',  ( 0.0000000000000000000, 0.0000000000000000000, 0.0000000000000000000 ) ) ;
#221 = ADVANCED_FACE ( 'NONE', ( #227 ), #3, .T. ) ;
#222 = CARTESIAN_POINT ( 'NONE',  ( 1.326762908760390423E-13, -4.653657836759941941E-15, 38.00000000000000000 ) ) ;
#223 = ORGANIZATION ( 'UNSPECIFIED', 'UNSPECIFIED', '' ) ;
#224 = FACE_OUTER_BOUND ( 'NONE', #205, .T. ) ;
#225 = DESIGN_CONTEXT ( 'detailed design', #178, 'design' ) ;
#226 = FACE_OUTER_BOUND ( 'NONE', #216, .T. ) ;
#227 = FACE_OUTER_BOUND ( 'NONE', #105, .T. ) ;
#228 = CARTESIAN_POINT ( 'NONE',  ( 0.0000000000000000000, 0.0000000000000000000, 0.0000000000000000000 ) ) ;
#229 = MECHANICAL_CONTEXT ( 'NONE', #121, 'mechanical' ) ;
#230 = EDGE_CURVE ( 'NONE', #42, #42, #33, .T. ) ;
#231 = DATE_AND_TIME ( #233, #238 ) ;
#232 = CIRCLE ( 'NONE', #209, 0.7500000000000000000 ) ;
#233 = CALENDAR_DATE ( 2021, 24, 11 ) ;
#234 = EDGE_LOOP ( 'NONE', ( #179 ) ) ;
#235 = EDGE_CURVE ( 'NONE', #208, #208, #232, .T. ) ;
#236 = DATE_TIME_ROLE ( 'creation_date' ) ;
#237 = CC_DESIGN_PERSON_AND_ORGANIZATION_ASSIGNMENT ( #217, #139, ( #190 ) ) ;
#238 = LOCAL_TIME ( 8, 10, 1.000000000000000000, #50 ) ;
#239 = DIRECTION ( 'NONE',  ( -3.491481338843133355E-15, 1.224646799147353207E-16, -1.000000000000000000 ) ) ;
#240 = ORIENTED_EDGE ( 'NONE', *, *, #67, .F. ) ;
#241 = FACE_OUTER_BOUND ( 'NONE', #160, .T. ) ;
#242 = FACE_OUTER_BOUND ( 'NONE', #203, .T. ) ;
#243 = LOCAL_TIME ( 8, 10, 1.000000000000000000, #140 ) ;
ENDSEC;
END-ISO-10303-21;
