ISO-10303-21;
HEADER;
FILE_DESCRIPTION (( 'STEP AP203' ),
    '1' );
FILE_NAME ('976265.step',
    '2021-11-24T07:10:00',
    ( '' ),
    ( '' ),
    'SwSTEP 2.0',
    'SolidWorks 2019',
    '' );
FILE_SCHEMA (( 'CONFIG_CONTROL_DESIGN' ));
ENDSEC;

DATA;
#1 = EDGE_CURVE ( 'NONE', #58, #58, #64, .T. ) ;
#2 = COORDINATED_UNIVERSAL_TIME_OFFSET ( 1, 0, .AHEAD. ) ;
#3 = AXIS2_PLACEMENT_3D ( 'NONE', #49, #33, #90 ) ;
#4 = CC_DESIGN_APPROVAL ( #139, ( #80 ) ) ;
#5 = PERSON_AND_ORGANIZATION_ROLE ( 'classification_officer' ) ;
#6 = DIRECTION ( 'NONE',  ( 0.0000000000000000000, 1.000000000000000000, 0.0000000000000000000 ) ) ;
#7 = DATE_AND_TIME ( #160, #148 ) ;
#8 = APPROVAL_STATUS ( 'not_yet_approved' ) ;
#9 =( NAMED_UNIT ( * ) SI_UNIT ( $, .STERADIAN. ) SOLID_ANGLE_UNIT ( ) );
#10 = DIRECTION ( 'NONE',  ( 3.491481338843133355E-15, -1.224646799147353207E-16, 1.000000000000000000 ) ) ;
#11 = APPROVAL_PERSON_ORGANIZATION ( #39, #102, #198 ) ;
#12 = CARTESIAN_POINT ( 'NONE',  ( -1.068957861474239268E-32, 3.749399456654642737E-34, -3.061616997868382016E-18 ) ) ;
#13 = CC_DESIGN_PERSON_AND_ORGANIZATION_ASSIGNMENT ( #65, #182, ( #67 ) ) ;
#14 = CARTESIAN_POINT ( 'NONE',  ( 0.0000000000000000000, 0.0000000000000000000, 0.0000000000000000000 ) ) ;
#15 = ORIENTED_EDGE ( 'NONE', *, *, #156, .F. ) ;
#16 = DIRECTION ( 'NONE',  ( 0.0000000000000000000, 1.000000000000000000, 0.0000000000000000000 ) ) ;
#17 = AXIS2_PLACEMENT_3D ( 'NONE', #215, #25, #6 ) ;
#18 = APPROVAL_PERSON_ORGANIZATION ( #167, #143, #123 ) ;
#19 = EDGE_LOOP ( 'NONE', ( #116 ) ) ;
#20 = COORDINATED_UNIVERSAL_TIME_OFFSET ( 1, 0, .AHEAD. ) ;
#21 = DATE_AND_TIME ( #119, #115 ) ;
#22 = CARTESIAN_POINT ( 'NONE',  ( -5.344789307371196342E-33, 1.874699728327321368E-34, -1.530808498934191008E-18 ) ) ;
#23 = AXIS2_PLACEMENT_3D ( 'NONE', #27, #207, #127 ) ;
#24 = DIRECTION ( 'NONE',  ( 0.0000000000000000000, 1.000000000000000000, 0.0000000000000000000 ) ) ;
#25 = DIRECTION ( 'NONE',  ( -3.491481338843133355E-15, 1.224646799147353207E-16, -1.000000000000000000 ) ) ;
#26 = PRODUCT_DEFINITION ( 'UNKNOWN', '', #67, #197 ) ;
#27 = CARTESIAN_POINT ( 'NONE',  ( 5.316129184725133265E-15, -1.864647110525474414E-16, 1.522599913561782925 ) ) ;
#28 = COORDINATED_UNIVERSAL_TIME_OFFSET ( 1, 0, .AHEAD. ) ;
#29 = CARTESIAN_POINT ( 'NONE',  ( 1.326762908760390423E-13, -4.653657836759941941E-15, 38.00000000000000000 ) ) ;
#30 = VERTEX_POINT ( 'NONE', #155 ) ;
#31 = EDGE_LOOP ( 'NONE', ( #191 ) ) ;
#32 = APPLICATION_PROTOCOL_DEFINITION ( 'international standard', 'config_control_design', 1994, #141 ) ;
#33 = DIRECTION ( 'NONE',  ( -3.491481338843133355E-15, 1.224646799147353207E-16, -1.000000000000000000 ) ) ;
#34 = DIRECTION ( 'NONE',  ( 4.275831445896958607E-31, 1.000000000000000000, 1.224646799147353207E-16 ) ) ;
#35 = EDGE_CURVE ( 'NONE', #30, #30, #114, .T. ) ;
#36 = DIRECTION ( 'NONE',  ( -3.491481338843133355E-15, 1.224646799147353207E-16, -1.000000000000000000 ) ) ;
#37 = CONICAL_SURFACE ( 'NONE', #229, 0.04000000000000000083, 0.4363323129985833271 ) ;
#38 = LOCAL_TIME ( 8, 10, 0.0000000000000000000, #28 ) ;
#39 = PERSON_AND_ORGANIZATION ( #174, #121 ) ;
#40 = AXIS2_PLACEMENT_3D ( 'NONE', #109, #129, #190 ) ;
#41 = CALENDAR_DATE ( 2021, 24, 11 ) ;
#42 = PERSON_AND_ORGANIZATION ( #174, #121 ) ;
#43 = PERSON_AND_ORGANIZATION_ROLE ( 'creator' ) ;
#44 = MANIFOLD_SOLID_BREP ( 'Corps-Déplacer/Copier1[1]', #230 ) ;
#45 = EDGE_CURVE ( 'NONE', #175, #175, #140, .T. ) ;
#46 = FACE_OUTER_BOUND ( 'NONE', #31, .T. ) ;
#47 = CC_DESIGN_APPROVAL ( #102, ( #26 ) ) ;
#48 = CARTESIAN_POINT ( 'NONE',  ( 6.413747168845441632E-33, 0.04000000000000000083, 1.836970198721030751E-18 ) ) ;
#49 = CARTESIAN_POINT ( 'NONE',  ( 1.983837810246228641E-14, -6.958366345301815590E-16, 5.681937314617162116 ) ) ;
#50 = EDGE_LOOP ( 'NONE', ( #93 ) ) ;
#51 = FACE_OUTER_BOUND ( 'NONE', #189, .T. ) ;
#52 = CC_DESIGN_PERSON_AND_ORGANIZATION_ASSIGNMENT ( #42, #43, ( #67 ) ) ;
#53 = CIRCLE ( 'NONE', #169, 0.7500000000000000000 ) ;
#54 = MECHANICAL_CONTEXT ( 'NONE', #141, 'mechanical' ) ;
#55 = DIRECTION ( 'NONE',  ( -4.275831445896958607E-31, -1.000000000000000000, -1.224646799147353454E-16 ) ) ;
#56 = ORIENTED_EDGE ( 'NONE', *, *, #1, .F. ) ;
#57 = CARTESIAN_POINT ( 'NONE',  ( 0.0000000000000000000, 0.0000000000000000000, 0.0000000000000000000 ) ) ;
#58 = VERTEX_POINT ( 'NONE', #152 ) ;
#59 =( GEOMETRIC_REPRESENTATION_CONTEXT ( 3 ) GLOBAL_UNCERTAINTY_ASSIGNED_CONTEXT ( ( #60 ) ) GLOBAL_UNIT_ASSIGNED_CONTEXT ( ( #135, #194, #9 ) ) REPRESENTATION_CONTEXT ( 'NONE', 'WORKASPACE' ) );
#60 = UNCERTAINTY_MEASURE_WITH_UNIT (LENGTH_MEASURE( 1.000000000000000082E-05 ), #135, 'distance_accuracy_value', 'NONE');
#61 = AXIS2_PLACEMENT_3D ( 'NONE', #12, #66, #34 ) ;
#62 = COORDINATED_UNIVERSAL_TIME_OFFSET ( 1, 0, .AHEAD. ) ;
#63 = PRODUCT ( '976265', '976265', '', ( #54 ) ) ;
#64 = CIRCLE ( 'NONE', #103, 1.500000000000003331 ) ;
#65 = PERSON_AND_ORGANIZATION ( #174, #121 ) ;
#66 = DIRECTION ( 'NONE',  ( -3.491481338843133355E-15, 1.224646799147353207E-16, -1.000000000000000000 ) ) ;
#67 = PRODUCT_DEFINITION_FORMATION_WITH_SPECIFIED_SOURCE ( 'ANY', '', #63, .NOT_KNOWN. ) ;
#68 = APPROVAL_DATE_TIME ( #234, #102 ) ;
#69 = CYLINDRICAL_SURFACE ( 'NONE', #158, 0.7500000000000004441 ) ;
#70 = DIRECTION ( 'NONE',  ( 1.000000000000000000, 0.0000000000000000000, 0.0000000000000000000 ) ) ;
#71 = CARTESIAN_POINT ( 'NONE',  ( 8.030407079339206717E-15, 0.7500000000000006661, 2.299999999999999822 ) ) ;
#72 = DIRECTION ( 'NONE',  ( -4.275831445896958607E-31, -1.000000000000000000, -1.224646799147353207E-16 ) ) ;
#73 = ADVANCED_FACE ( 'NONE', ( #104, #82 ), #166, .T. ) ;
#74 = AXIS2_PLACEMENT_3D ( 'NONE', #231, #147, #216 ) ;
#75 = ORIENTED_EDGE ( 'NONE', *, *, #1, .T. ) ;
#76 = FACE_BOUND ( 'NONE', #19, .T. ) ;
#77 = APPROVAL_DATE_TIME ( #97, #143 ) ;
#78 = SECURITY_CLASSIFICATION_LEVEL ( 'unclassified' ) ;
#79 = AXIS2_PLACEMENT_3D ( 'NONE', #29, #150, #168 ) ;
#80 = SECURITY_CLASSIFICATION ( '', '', #78 ) ;
#81 = DIRECTION ( 'NONE',  ( -3.491481338843133355E-15, 1.224646799147353207E-16, -1.000000000000000000 ) ) ;
#82 = FACE_OUTER_BOUND ( 'NONE', #225, .T. ) ;
#83 = FACE_BOUND ( 'NONE', #202, .T. ) ;
#84 = ADVANCED_FACE ( 'NONE', ( #46 ), #125, .F. ) ;
#85 = AXIS2_PLACEMENT_3D ( 'NONE', #57, #133, #70 ) ;
#86 = DIRECTION ( 'NONE',  ( -3.491481338843133355E-15, 1.224646799147353207E-16, -1.000000000000000000 ) ) ;
#87 = ORIENTED_EDGE ( 'NONE', *, *, #137, .F. ) ;
#88 = FACE_OUTER_BOUND ( 'NONE', #195, .T. ) ;
#89 = ADVANCED_FACE ( 'NONE', ( #188, #149 ), #240, .F. ) ;
#90 = DIRECTION ( 'NONE',  ( 0.0000000000000000000, 1.000000000000000000, 0.0000000000000000000 ) ) ;
#91 = ORIENTED_EDGE ( 'NONE', *, *, #156, .T. ) ;
#92 = DIRECTION ( 'NONE',  ( -4.275831445896958607E-31, -1.000000000000000000, -1.224646799147353207E-16 ) ) ;
#93 = ORIENTED_EDGE ( 'NONE', *, *, #45, .T. ) ;
#94 = ORIENTED_EDGE ( 'NONE', *, *, #45, .F. ) ;
#95 = EDGE_CURVE ( 'NONE', #226, #226, #217, .T. ) ;
#96 = CC_DESIGN_DATE_AND_TIME_ASSIGNMENT ( #185, #144, ( #26 ) ) ;
#97 = DATE_AND_TIME ( #41, #193 ) ;
#98 = COORDINATED_UNIVERSAL_TIME_OFFSET ( 1, 0, .AHEAD. ) ;
#99 = APPROVAL_STATUS ( 'not_yet_approved' ) ;
#100 = DIRECTION ( 'NONE',  ( 3.491481338843133355E-15, -1.224646799147353207E-16, 1.000000000000000000 ) ) ;
#101 = PERSON_AND_ORGANIZATION ( #174, #121 ) ;
#102 = APPROVAL ( #227, 'UNSPECIFIED' ) ;
#103 = AXIS2_PLACEMENT_3D ( 'NONE', #178, #36, #162 ) ;
#104 = FACE_OUTER_BOUND ( 'NONE', #154, .T. ) ;
#105 = FACE_OUTER_BOUND ( 'NONE', #50, .T. ) ;
#106 = CALENDAR_DATE ( 2021, 24, 11 ) ;
#107 = DIRECTION ( 'NONE',  ( -4.275831445896958607E-31, -1.000000000000000000, -1.224646799147353207E-16 ) ) ;
#108 = CC_DESIGN_DATE_AND_TIME_ASSIGNMENT ( #21, #163, ( #80 ) ) ;
#109 = CARTESIAN_POINT ( 'NONE',  ( 8.030407079339206717E-15, 0.0000000000000000000, 2.299999999999999822 ) ) ;
#110 = CARTESIAN_POINT ( 'NONE',  ( 5.316129184725133265E-15, 3.217939358824155512E-32, 1.522599913561782925 ) ) ;
#111 = EDGE_LOOP ( 'NONE', ( #56 ) ) ;
#112 = CARTESIAN_POINT ( 'NONE',  ( 5.316129184725133265E-15, -1.864647110525474414E-16, 1.522599913561782925 ) ) ;
#113 = ORIENTED_EDGE ( 'NONE', *, *, #95, .F. ) ;
#114 = CIRCLE ( 'NONE', #17, 1.200000000000003286 ) ;
#115 = LOCAL_TIME ( 8, 10, 0.0000000000000000000, #62 ) ;
#116 = ORIENTED_EDGE ( 'NONE', *, *, #35, .T. ) ;
#117 = PERSON_AND_ORGANIZATION_ROLE ( 'design_owner' ) ;
#118 = EDGE_CURVE ( 'NONE', #153, #153, #164, .T. ) ;
#119 = CALENDAR_DATE ( 2021, 24, 11 ) ;
#120 = PRODUCT_DEFINITION_SHAPE ( 'NONE', 'NONE',  #26 ) ;
#121 = ORGANIZATION ( 'UNSPECIFIED', 'UNSPECIFIED', '' ) ;
#122 = PERSON_AND_ORGANIZATION ( #174, #121 ) ;
#123 = APPROVAL_ROLE ( '' ) ;
#124 = CONICAL_SURFACE ( 'NONE', #79, 1.200000000000003286, 0.7853981633974453924 ) ;
#125 = PLANE ( 'NONE',  #205 ) ;
#126 = PERSON_AND_ORGANIZATION_ROLE ( 'creator' ) ;
#127 = DIRECTION ( 'NONE',  ( 0.0000000000000000000, 1.000000000000000000, 0.0000000000000000000 ) ) ;
#128 = MANIFOLD_SOLID_BREP ( 'Corps-Déplacer/Copier1[2]', #179 ) ;
#129 = DIRECTION ( 'NONE',  ( -3.491481338843133355E-15, 1.224646799147353207E-16, -1.000000000000000000 ) ) ;
#130 = CC_DESIGN_SECURITY_CLASSIFICATION ( #80, ( #67 ) ) ;
#131 = EDGE_LOOP ( 'NONE', ( #87 ) ) ;
#132 = CARTESIAN_POINT ( 'NONE',  ( 5.316129184725133265E-15, 0.7499999999999997780, 1.522599913561782925 ) ) ;
#133 = DIRECTION ( 'NONE',  ( 0.0000000000000000000, 0.0000000000000000000, 1.000000000000000000 ) ) ;
#134 = CARTESIAN_POINT ( 'NONE',  ( 1.983837810246228641E-14, 1.499999999999996225, 5.681937314617162116 ) ) ;
#135 =( LENGTH_UNIT ( ) NAMED_UNIT ( * ) SI_UNIT ( .MILLI., .METRE. ) );
#136 = EDGE_LOOP ( 'NONE', ( #242 ) ) ;
#137 = EDGE_CURVE ( 'NONE', #222, #222, #53, .T. ) ;
#138 = PERSON_AND_ORGANIZATION ( #174, #121 ) ;
#139 = APPROVAL ( #99, 'UNSPECIFIED' ) ;
#140 = CIRCLE ( 'NONE', #142, 0.7500000000000009992 ) ;
#141 = APPLICATION_CONTEXT ( 'configuration controlled 3d designs of mechanical parts and assemblies' ) ;
#142 = AXIS2_PLACEMENT_3D ( 'NONE', #165, #81, #24 ) ;
#143 = APPROVAL ( #8, 'UNSPECIFIED' ) ;
#144 = DATE_TIME_ROLE ( 'creation_date' ) ;
#145 = ADVANCED_BREP_SHAPE_REPRESENTATION ( '976265', ( #44, #128, #85 ), #59 ) ;
#146 = APPLICATION_CONTEXT ( 'configuration controlled 3d designs of mechanical parts and assemblies' ) ;
#147 = DIRECTION ( 'NONE',  ( -3.491481338843133355E-15, 1.224646799147353207E-16, -1.000000000000000000 ) ) ;
#148 = LOCAL_TIME ( 8, 10, 0.0000000000000000000, #98 ) ;
#149 = FACE_OUTER_BOUND ( 'NONE', #243, .T. ) ;
#150 = DIRECTION ( 'NONE',  ( -3.491481338843133355E-15, 1.224646799147353207E-16, -1.000000000000000000 ) ) ;
#151 = EDGE_LOOP ( 'NONE', ( #172 ) ) ;
#152 = CARTESIAN_POINT ( 'NONE',  ( 1.316288464743861212E-13, 1.499999999999998668, 37.69999999999999574 ) ) ;
#153 = VERTEX_POINT ( 'NONE', #239 ) ;
#154 = EDGE_LOOP ( 'NONE', ( #15 ) ) ;
#155 = CARTESIAN_POINT ( 'NONE',  ( 1.326762908760390423E-13, 1.199999999999998845, 38.00000000000000000 ) ) ;
#156 = EDGE_CURVE ( 'NONE', #223, #223, #192, .T. ) ;
#157 = ORIENTED_EDGE ( 'NONE', *, *, #35, .F. ) ;
#158 = AXIS2_PLACEMENT_3D ( 'NONE', #14, #184, #241 ) ;
#159 = CC_DESIGN_PERSON_AND_ORGANIZATION_ASSIGNMENT ( #138, #117, ( #63 ) ) ;
#160 = CALENDAR_DATE ( 2021, 24, 11 ) ;
#161 = CC_DESIGN_APPROVAL ( #143, ( #67 ) ) ;
#162 = DIRECTION ( 'NONE',  ( 0.0000000000000000000, 1.000000000000000000, 0.0000000000000000000 ) ) ;
#163 = DATE_TIME_ROLE ( 'classification_date' ) ;
#164 = CIRCLE ( 'NONE', #23, 0.7500000000000000000 ) ;
#165 = CARTESIAN_POINT ( 'NONE',  ( 8.030407079339206717E-15, -2.816687638038912056E-16, 2.299999999999999822 ) ) ;
#166 = CYLINDRICAL_SURFACE ( 'NONE', #74, 1.500000000000000000 ) ;
#167 = PERSON_AND_ORGANIZATION ( #174, #121 ) ;
#168 = DIRECTION ( 'NONE',  ( 0.0000000000000000000, 1.000000000000000000, 0.0000000000000000000 ) ) ;
#169 = AXIS2_PLACEMENT_3D ( 'NONE', #112, #86, #16 ) ;
#170 = CALENDAR_DATE ( 2021, 24, 11 ) ;
#171 = DIRECTION ( 'NONE',  ( -3.491481338843133355E-15, 1.224646799147353207E-16, -1.000000000000000000 ) ) ;
#172 = ORIENTED_EDGE ( 'NONE', *, *, #137, .T. ) ;
#173 = FACE_OUTER_BOUND ( 'NONE', #136, .T. ) ;
#174 = PERSON ( 'UNSPECIFIED', 'UNSPECIFIED', 'UNSPECIFIED', ('UNSPECIFIED'), ('UNSPECIFIED'), ('UNSPECIFIED') ) ;
#175 = VERTEX_POINT ( 'NONE', #71 ) ;
#176 = AXIS2_PLACEMENT_3D ( 'NONE', #187, #171, #203 ) ;
#177 = FACE_OUTER_BOUND ( 'NONE', #131, .T. ) ;
#178 = CARTESIAN_POINT ( 'NONE',  ( 1.316288464743861212E-13, -4.616918432785521081E-15, 37.69999999999999574 ) ) ;
#179 = CLOSED_SHELL ( 'NONE', ( #84, #232, #211 ) ) ;
#180 = PRODUCT_RELATED_PRODUCT_CATEGORY ( 'detail', '', ( #63 ) ) ;
#181 = APPROVAL_DATE_TIME ( #7, #139 ) ;
#182 = PERSON_AND_ORGANIZATION_ROLE ( 'design_supplier' ) ;
#183 = LOCAL_TIME ( 8, 10, 0.0000000000000000000, #2 ) ;
#184 = DIRECTION ( 'NONE',  ( -3.491481338843133355E-15, 1.224646799147353207E-16, -1.000000000000000000 ) ) ;
#185 = DATE_AND_TIME ( #106, #38 ) ;
#186 = PLANE ( 'NONE',  #176 ) ;
#187 = CARTESIAN_POINT ( 'NONE',  ( 1.326762908760390423E-13, 8.998558695971103225E-33, 38.00000000000000000 ) ) ;
#188 = FACE_OUTER_BOUND ( 'NONE', #238, .T. ) ;
#189 = EDGE_LOOP ( 'NONE', ( #204 ) ) ;
#190 = DIRECTION ( 'NONE',  ( 4.355100981429076768E-31, 1.000000000000000000, 1.224646799147353207E-16 ) ) ;
#191 = ORIENTED_EDGE ( 'NONE', *, *, #95, .T. ) ;
#192 = CIRCLE ( 'NONE', #3, 1.499999999999996669 ) ;
#193 = LOCAL_TIME ( 8, 10, 0.0000000000000000000, #20 ) ;
#194 =( NAMED_UNIT ( * ) PLANE_ANGLE_UNIT ( ) SI_UNIT ( $, .RADIAN. ) );
#195 = EDGE_LOOP ( 'NONE', ( #157 ) ) ;
#196 = ADVANCED_FACE ( 'NONE', ( #88 ), #186, .F. ) ;
#197 = DESIGN_CONTEXT ( 'detailed design', #146, 'design' ) ;
#198 = APPROVAL_ROLE ( '' ) ;
#199 = AXIS2_PLACEMENT_3D ( 'NONE', #206, #235, #92 ) ;
#200 = CARTESIAN_POINT ( 'NONE',  ( -1.068957861474239268E-32, 3.749399456654642737E-34, -3.061616997868382016E-18 ) ) ;
#201 = PLANE ( 'NONE',  #199 ) ;
#202 = EDGE_LOOP ( 'NONE', ( #113 ) ) ;
#203 = DIRECTION ( 'NONE',  ( 4.275831445896958607E-31, 1.000000000000000000, 1.224646799147353207E-16 ) ) ;
#204 = ORIENTED_EDGE ( 'NONE', *, *, #118, .T. ) ;
#205 = AXIS2_PLACEMENT_3D ( 'NONE', #22, #100, #107 ) ;
#206 = CARTESIAN_POINT ( 'NONE',  ( 5.316129184725133265E-15, 3.217939358824155512E-32, 1.522599913561782925 ) ) ;
#207 = DIRECTION ( 'NONE',  ( -3.491481338843133355E-15, 1.224646799147353207E-16, -1.000000000000000000 ) ) ;
#208 = APPLICATION_PROTOCOL_DEFINITION ( 'international standard', 'config_control_design', 1994, #146 ) ;
#209 = ADVANCED_FACE ( 'NONE', ( #233 ), #201, .F. ) ;
#210 = APPROVAL_ROLE ( '' ) ;
#211 = ADVANCED_FACE ( 'NONE', ( #173 ), #237, .T. ) ;
#212 = SHAPE_DEFINITION_REPRESENTATION ( #120, #145 ) ;
#213 = AXIS2_PLACEMENT_3D ( 'NONE', #110, #219, #72 ) ;
#214 = CC_DESIGN_PERSON_AND_ORGANIZATION_ASSIGNMENT ( #122, #5, ( #80 ) ) ;
#215 = CARTESIAN_POINT ( 'NONE',  ( 1.326762908760390423E-13, -4.653657836759941941E-15, 38.00000000000000000 ) ) ;
#216 = DIRECTION ( 'NONE',  ( 4.275831445896959482E-31, 1.000000000000000000, 1.224646799147353207E-16 ) ) ;
#217 = CIRCLE ( 'NONE', #61, 0.04000000000000000083 ) ;
#218 = APPROVAL_PERSON_ORGANIZATION ( #101, #139, #210 ) ;
#219 = DIRECTION ( 'NONE',  ( 3.491481338843133355E-15, -1.224646799147353207E-16, 1.000000000000000000 ) ) ;
#220 = PERSON_AND_ORGANIZATION ( #174, #121 ) ;
#221 = FACE_OUTER_BOUND ( 'NONE', #111, .T. ) ;
#222 = VERTEX_POINT ( 'NONE', #132 ) ;
#223 = VERTEX_POINT ( 'NONE', #134 ) ;
#224 = CC_DESIGN_PERSON_AND_ORGANIZATION_ASSIGNMENT ( #220, #126, ( #26 ) ) ;
#225 = EDGE_LOOP ( 'NONE', ( #75 ) ) ;
#226 = VERTEX_POINT ( 'NONE', #48 ) ;
#227 = APPROVAL_STATUS ( 'not_yet_approved' ) ;
#228 = ADVANCED_FACE ( 'NONE', ( #105, #177 ), #69, .T. ) ;
#229 = AXIS2_PLACEMENT_3D ( 'NONE', #200, #10, #55 ) ;
#230 = CLOSED_SHELL ( 'NONE', ( #209, #228, #89, #73, #236, #196 ) ) ;
#231 = CARTESIAN_POINT ( 'NONE',  ( 0.0000000000000000000, 0.0000000000000000000, 0.0000000000000000000 ) ) ;
#232 = ADVANCED_FACE ( 'NONE', ( #51, #83 ), #37, .T. ) ;
#233 = FACE_OUTER_BOUND ( 'NONE', #151, .T. ) ;
#234 = DATE_AND_TIME ( #170, #183 ) ;
#235 = DIRECTION ( 'NONE',  ( 3.491481338843133355E-15, -1.224646799147353207E-16, 1.000000000000000000 ) ) ;
#236 = ADVANCED_FACE ( 'NONE', ( #221, #76 ), #124, .T. ) ;
#237 = PLANE ( 'NONE',  #213 ) ;
#238 = EDGE_LOOP ( 'NONE', ( #91 ) ) ;
#239 = CARTESIAN_POINT ( 'NONE',  ( 5.316129184725133265E-15, 0.7499999999999997780, 1.522599913561782925 ) ) ;
#240 = TOROIDAL_SURFACE ( 'NONE', #40, 8.750000000000000000, 8.000000000000000000 ) ;
#241 = DIRECTION ( 'NONE',  ( 4.275831445896958607E-31, 1.000000000000000000, 1.224646799147353207E-16 ) ) ;
#242 = ORIENTED_EDGE ( 'NONE', *, *, #118, .F. ) ;
#243 = EDGE_LOOP ( 'NONE', ( #94 ) ) ;
ENDSEC;
END-ISO-10303-21;
