ISO-10303-21;
HEADER;
FILE_DESCRIPTION (( 'STEP AP203' ),
    '1' );
FILE_NAME ('976264.step',
    '2021-11-24T07:10:00',
    ( '' ),
    ( '' ),
    'SwSTEP 2.0',
    'SolidWorks 2019',
    '' );
FILE_SCHEMA (( 'CONFIG_CONTROL_DESIGN' ));
ENDSEC;

DATA;
#1 = EDGE_CURVE ( 'NONE', #204, #204, #121, .T. ) ;
#2 = CLOSED_SHELL ( 'NONE', ( #80, #40, #65, #150, #223, #91 ) ) ;
#3 = EDGE_LOOP ( 'NONE', ( #190 ) ) ;
#4 = DIRECTION ( 'NONE',  ( 4.275831445896958607E-31, 1.000000000000000000, 1.224646799147353207E-16 ) ) ;
#5 = CARTESIAN_POINT ( 'NONE',  ( 5.428441773134818840E-15, -1.904041063564744771E-16, 1.554767517369426200 ) ) ;
#6 = APPROVAL_DATE_TIME ( #129, #96 ) ;
#7 = DIRECTION ( 'NONE',  ( 4.355100981429076768E-31, 1.000000000000000000, 1.224646799147353207E-16 ) ) ;
#8 = PERSON_AND_ORGANIZATION ( #241, #75 ) ;
#9 = CC_DESIGN_DATE_AND_TIME_ASSIGNMENT ( #83, #234, ( #93 ) ) ;
#10 = PLANE ( 'NONE',  #25 ) ;
#11 = CARTESIAN_POINT ( 'NONE',  ( 8.030407079339206717E-15, -2.816687638038912056E-16, 2.299999999999999822 ) ) ;
#12 = AXIS2_PLACEMENT_3D ( 'NONE', #68, #130, #81 ) ;
#13 =( NAMED_UNIT ( * ) SI_UNIT ( $, .STERADIAN. ) SOLID_ANGLE_UNIT ( ) );
#14 = CARTESIAN_POINT ( 'NONE',  ( 5.428441773134818840E-15, -4.495152853444868960E-16, 1.554767517369426200 ) ) ;
#15 = DATE_AND_TIME ( #198, #138 ) ;
#16 = AXIS2_PLACEMENT_3D ( 'NONE', #214, #22, #7 ) ;
#17 = EDGE_LOOP ( 'NONE', ( #137 ) ) ;
#18 = EDGE_LOOP ( 'NONE', ( #78 ) ) ;
#19 = PRODUCT ( '976264', '976264', '', ( #196 ) ) ;
#20 = APPLICATION_CONTEXT ( 'configuration controlled 3d designs of mechanical parts and assemblies' ) ;
#21 = DIRECTION ( 'NONE',  ( 0.0000000000000000000, 1.000000000000000000, 0.0000000000000000000 ) ) ;
#22 = DIRECTION ( 'NONE',  ( -3.491481338843133355E-15, 1.224646799147353207E-16, -1.000000000000000000 ) ) ;
#23 = APPROVAL_STATUS ( 'not_yet_approved' ) ;
#24 = PLANE ( 'NONE',  #126 ) ;
#25 = AXIS2_PLACEMENT_3D ( 'NONE', #165, #79, #215 ) ;
#26 = CALENDAR_DATE ( 2021, 24, 11 ) ;
#27 = CALENDAR_DATE ( 2021, 24, 11 ) ;
#28 = CARTESIAN_POINT ( 'NONE',  ( 0.0000000000000000000, 0.0000000000000000000, 0.0000000000000000000 ) ) ;
#29 = CALENDAR_DATE ( 2021, 24, 11 ) ;
#30 = FACE_OUTER_BOUND ( 'NONE', #17, .T. ) ;
#31 = VERTEX_POINT ( 'NONE', #72 ) ;
#32 = ADVANCED_FACE ( 'NONE', ( #125 ), #24, .F. ) ;
#33 = PLANE ( 'NONE',  #144 ) ;
#34 = PERSON_AND_ORGANIZATION_ROLE ( 'creator' ) ;
#35 = AXIS2_PLACEMENT_3D ( 'NONE', #62, #43, #217 ) ;
#36 = CC_DESIGN_APPROVAL ( #231, ( #110 ) ) ;
#37 = AXIS2_PLACEMENT_3D ( 'NONE', #103, #233, #4 ) ;
#38 = EDGE_LOOP ( 'NONE', ( #115 ) ) ;
#39 = EDGE_LOOP ( 'NONE', ( #120 ) ) ;
#40 = ADVANCED_FACE ( 'NONE', ( #59, #149 ), #44, .T. ) ;
#41 = ORIENTED_EDGE ( 'NONE', *, *, #188, .F. ) ;
#42 = CARTESIAN_POINT ( 'NONE',  ( 1.983837810246228641E-14, -6.958366345301815590E-16, 5.681937314617162116 ) ) ;
#43 = DIRECTION ( 'NONE',  ( -3.491481338843133355E-15, 1.224646799147353207E-16, -1.000000000000000000 ) ) ;
#44 = CYLINDRICAL_SURFACE ( 'NONE', #37, 0.7500000000000004441 ) ;
#45 = CC_DESIGN_PERSON_AND_ORGANIZATION_ASSIGNMENT ( #168, #107, ( #122 ) ) ;
#46 = AXIS2_PLACEMENT_3D ( 'NONE', #140, #170, #182 ) ;
#47 = CARTESIAN_POINT ( 'NONE',  ( -3.206873584422719174E-32, 0.02499999999999999792, -9.184850993605148746E-18 ) ) ;
#48 = CARTESIAN_POINT ( 'NONE',  ( -2.137915722948479358E-32, 7.498798913309288894E-34, -6.123233995736766344E-18 ) ) ;
#49 = DIRECTION ( 'NONE',  ( 4.275831445896958607E-31, 1.000000000000000000, 1.224646799147353207E-16 ) ) ;
#50 = PERSON_AND_ORGANIZATION ( #241, #75 ) ;
#51 = APPROVAL ( #82, 'UNSPECIFIED' ) ;
#52 = AXIS2_PLACEMENT_3D ( 'NONE', #202, #60, #160 ) ;
#53 = CC_DESIGN_PERSON_AND_ORGANIZATION_ASSIGNMENT ( #50, #242, ( #19 ) ) ;
#54 = CIRCLE ( 'NONE', #199, 0.7500000000000009992 ) ;
#55 = ORIENTED_EDGE ( 'NONE', *, *, #188, .T. ) ;
#56 = EDGE_LOOP ( 'NONE', ( #95 ) ) ;
#57 = CONICAL_SURFACE ( 'NONE', #52, 0.02499999999999999792, 0.4363323129985833271 ) ;
#58 = LOCAL_TIME ( 8, 10, 0.0000000000000000000, #71 ) ;
#59 = FACE_OUTER_BOUND ( 'NONE', #119, .T. ) ;
#60 = DIRECTION ( 'NONE',  ( 3.491481338843133355E-15, -1.224646799147353207E-16, 1.000000000000000000 ) ) ;
#61 = APPROVAL_STATUS ( 'not_yet_approved' ) ;
#62 = CARTESIAN_POINT ( 'NONE',  ( -4.275831445896958716E-32, 1.499759782661857779E-33, -1.224646799147353269E-17 ) ) ;
#63 = PERSON_AND_ORGANIZATION_ROLE ( 'design_supplier' ) ;
#64 = DIRECTION ( 'NONE',  ( -3.491481338843133355E-15, 1.224646799147353207E-16, -1.000000000000000000 ) ) ;
#65 = ADVANCED_FACE ( 'NONE', ( #175, #87 ), #177, .F. ) ;
#66 = CC_DESIGN_APPROVAL ( #51, ( #122 ) ) ;
#67 = SECURITY_CLASSIFICATION_LEVEL ( 'unclassified' ) ;
#68 = CARTESIAN_POINT ( 'NONE',  ( 1.326762908760390423E-13, -4.653657836759941941E-15, 38.00000000000000000 ) ) ;
#69 = PRODUCT_RELATED_PRODUCT_CATEGORY ( 'detail', '', ( #19 ) ) ;
#70 = DATE_AND_TIME ( #26, #158 ) ;
#71 = COORDINATED_UNIVERSAL_TIME_OFFSET ( 1, 0, .AHEAD. ) ;
#72 = CARTESIAN_POINT ( 'NONE',  ( 1.326762908760390423E-13, 1.199999999999998845, 38.00000000000000000 ) ) ;
#73 = AXIS2_PLACEMENT_3D ( 'NONE', #42, #176, #179 ) ;
#74 = EDGE_CURVE ( 'NONE', #203, #203, #162, .T. ) ;
#75 = ORGANIZATION ( 'UNSPECIFIED', 'UNSPECIFIED', '' ) ;
#76 = CC_DESIGN_DATE_AND_TIME_ASSIGNMENT ( #15, #236, ( #122 ) ) ;
#77 = EDGE_LOOP ( 'NONE', ( #173 ) ) ;
#78 = ORIENTED_EDGE ( 'NONE', *, *, #113, .F. ) ;
#79 = DIRECTION ( 'NONE',  ( 3.491481338843133355E-15, -1.224646799147353207E-16, 1.000000000000000000 ) ) ;
#80 = ADVANCED_FACE ( 'NONE', ( #101 ), #10, .F. ) ;
#81 = DIRECTION ( 'NONE',  ( 0.0000000000000000000, 1.000000000000000000, 0.0000000000000000000 ) ) ;
#82 = APPROVAL_STATUS ( 'not_yet_approved' ) ;
#83 = DATE_AND_TIME ( #29, #58 ) ;
#84 = CARTESIAN_POINT ( 'NONE',  ( 5.428441773134818840E-15, -1.904041063564744771E-16, 1.554767517369426200 ) ) ;
#85 = COORDINATED_UNIVERSAL_TIME_OFFSET ( 1, 0, .AHEAD. ) ;
#86 = DATE_AND_TIME ( #27, #174 ) ;
#87 = FACE_OUTER_BOUND ( 'NONE', #3, .T. ) ;
#88 = DIRECTION ( 'NONE',  ( 0.0000000000000000000, 1.000000000000000000, 0.0000000000000000000 ) ) ;
#89 = CC_DESIGN_SECURITY_CLASSIFICATION ( #122, ( #110 ) ) ;
#90 = APPROVAL_ROLE ( '' ) ;
#91 = ADVANCED_FACE ( 'NONE', ( #229 ), #219, .F. ) ;
#92 = CIRCLE ( 'NONE', #35, 0.02499999999999999792 ) ;
#93 = PRODUCT_DEFINITION ( 'UNKNOWN', '', #110, #152 ) ;
#94 = ORIENTED_EDGE ( 'NONE', *, *, #156, .F. ) ;
#95 = ORIENTED_EDGE ( 'NONE', *, *, #209, .T. ) ;
#96 = APPROVAL ( #23, 'UNSPECIFIED' ) ;
#97 = EDGE_LOOP ( 'NONE', ( #213 ) ) ;
#98 = LOCAL_TIME ( 8, 10, 0.0000000000000000000, #102 ) ;
#99 = CARTESIAN_POINT ( 'NONE',  ( 1.316288464743861212E-13, -4.616918432785521081E-15, 37.69999999999999574 ) ) ;
#100 = DIRECTION ( 'NONE',  ( 3.491481338843133355E-15, -1.224646799147353207E-16, 1.000000000000000000 ) ) ;
#101 = FACE_OUTER_BOUND ( 'NONE', #136, .T. ) ;
#102 = COORDINATED_UNIVERSAL_TIME_OFFSET ( 1, 0, .AHEAD. ) ;
#103 = CARTESIAN_POINT ( 'NONE',  ( 0.0000000000000000000, 0.0000000000000000000, 0.0000000000000000000 ) ) ;
#104 = DIRECTION ( 'NONE',  ( -3.491481338843133355E-15, 1.224646799147353207E-16, -1.000000000000000000 ) ) ;
#105 = CARTESIAN_POINT ( 'NONE',  ( 8.030407079339206717E-15, 0.7500000000000006661, 2.299999999999999822 ) ) ;
#106 = DIRECTION ( 'NONE',  ( -3.491481338843133355E-15, 1.224646799147353207E-16, -1.000000000000000000 ) ) ;
#107 = PERSON_AND_ORGANIZATION_ROLE ( 'classification_officer' ) ;
#108 = VERTEX_POINT ( 'NONE', #132 ) ;
#109 = DIRECTION ( 'NONE',  ( -4.275831445896958607E-31, -1.000000000000000000, -1.224646799147353207E-16 ) ) ;
#110 = PRODUCT_DEFINITION_FORMATION_WITH_SPECIFIED_SOURCE ( 'ANY', '', #19, .NOT_KNOWN. ) ;
#111 = UNCERTAINTY_MEASURE_WITH_UNIT (LENGTH_MEASURE( 1.000000000000000082E-05 ), #151, 'distance_accuracy_value', 'NONE');
#112 = CIRCLE ( 'NONE', #134, 0.7500000000000000000 ) ;
#113 = EDGE_CURVE ( 'NONE', #31, #31, #226, .T. ) ;
#114 = CC_DESIGN_PERSON_AND_ORGANIZATION_ASSIGNMENT ( #240, #63, ( #110 ) ) ;
#115 = ORIENTED_EDGE ( 'NONE', *, *, #74, .T. ) ;
#116 = CIRCLE ( 'NONE', #73, 1.499999999999996669 ) ;
#117 = APPROVAL_PERSON_ORGANIZATION ( #164, #96, #90 ) ;
#118 = EDGE_LOOP ( 'NONE', ( #210 ) ) ;
#119 = EDGE_LOOP ( 'NONE', ( #189 ) ) ;
#120 = ORIENTED_EDGE ( 'NONE', *, *, #1, .F. ) ;
#121 = CIRCLE ( 'NONE', #230, 1.500000000000003331 ) ;
#122 = SECURITY_CLASSIFICATION ( '', '', #67 ) ;
#123 = FACE_OUTER_BOUND ( 'NONE', #39, .T. ) ;
#124 = CARTESIAN_POINT ( 'NONE',  ( 5.428441773134818840E-15, 0.7499999999999997780, 1.554767517369426200 ) ) ;
#125 = FACE_OUTER_BOUND ( 'NONE', #56, .T. ) ;
#126 = AXIS2_PLACEMENT_3D ( 'NONE', #48, #100, #127 ) ;
#127 = DIRECTION ( 'NONE',  ( -4.275831445896958607E-31, -1.000000000000000000, -1.224646799147353207E-16 ) ) ;
#128 = APPROVAL_DATE_TIME ( #70, #51 ) ;
#129 = DATE_AND_TIME ( #181, #98 ) ;
#130 = DIRECTION ( 'NONE',  ( -3.491481338843133355E-15, 1.224646799147353207E-16, -1.000000000000000000 ) ) ;
#131 = CARTESIAN_POINT ( 'NONE',  ( 1.316288464743861212E-13, 1.499999999999998668, 37.69999999999999574 ) ) ;
#132 = CARTESIAN_POINT ( 'NONE',  ( 5.428441773134818840E-15, 0.7499999999999997780, 1.554767517369426200 ) ) ;
#133 = ADVANCED_FACE ( 'NONE', ( #235, #146 ), #57, .T. ) ;
#134 = AXIS2_PLACEMENT_3D ( 'NONE', #5, #106, #21 ) ;
#135 = CC_DESIGN_PERSON_AND_ORGANIZATION_ASSIGNMENT ( #166, #34, ( #110 ) ) ;
#136 = EDGE_LOOP ( 'NONE', ( #55 ) ) ;
#137 = ORIENTED_EDGE ( 'NONE', *, *, #1, .T. ) ;
#138 = LOCAL_TIME ( 8, 10, 0.0000000000000000000, #85 ) ;
#139 = CYLINDRICAL_SURFACE ( 'NONE', #206, 1.500000000000000000 ) ;
#140 = CARTESIAN_POINT ( 'NONE',  ( 1.326762908760390423E-13, -4.653657836759941941E-15, 38.00000000000000000 ) ) ;
#141 = APPROVAL_ROLE ( '' ) ;
#142 = DIRECTION ( 'NONE',  ( 4.275831445896959482E-31, 1.000000000000000000, 1.224646799147353207E-16 ) ) ;
#143 = DIRECTION ( 'NONE',  ( 0.0000000000000000000, 0.0000000000000000000, 1.000000000000000000 ) ) ;
#144 = AXIS2_PLACEMENT_3D ( 'NONE', #14, #185, #109 ) ;
#145 = AXIS2_PLACEMENT_3D ( 'NONE', #222, #143, #171 ) ;
#146 = FACE_BOUND ( 'NONE', #77, .T. ) ;
#147 = APPROVAL_ROLE ( '' ) ;
#148 = VERTEX_POINT ( 'NONE', #105 ) ;
#149 = FACE_OUTER_BOUND ( 'NONE', #212, .T. ) ;
#150 = ADVANCED_FACE ( 'NONE', ( #194, #30 ), #139, .T. ) ;
#151 =( LENGTH_UNIT ( ) NAMED_UNIT ( * ) SI_UNIT ( .MILLI., .METRE. ) );
#152 = DESIGN_CONTEXT ( 'detailed design', #172, 'design' ) ;
#153 = VERTEX_POINT ( 'NONE', #47 ) ;
#154 = MANIFOLD_SOLID_BREP ( 'Corps-Déplacer/Copier1[1]', #2 ) ;
#155 = AXIS2_PLACEMENT_3D ( 'NONE', #197, #163, #49 ) ;
#156 = EDGE_CURVE ( 'NONE', #187, #187, #116, .T. ) ;
#157 = CONICAL_SURFACE ( 'NONE', #46, 1.200000000000003286, 0.7853981633974453924 ) ;
#158 = LOCAL_TIME ( 8, 10, 0.0000000000000000000, #216 ) ;
#159 = EDGE_LOOP ( 'NONE', ( #191 ) ) ;
#160 = DIRECTION ( 'NONE',  ( -4.275831445896960358E-31, -1.000000000000000000, -1.224646799147352714E-16 ) ) ;
#161 = PERSON_AND_ORGANIZATION ( #241, #75 ) ;
#162 = CIRCLE ( 'NONE', #243, 0.7500000000000000000 ) ;
#163 = DIRECTION ( 'NONE',  ( -3.491481338843133355E-15, 1.224646799147353207E-16, -1.000000000000000000 ) ) ;
#164 = PERSON_AND_ORGANIZATION ( #241, #75 ) ;
#165 = CARTESIAN_POINT ( 'NONE',  ( 5.428441773134818840E-15, -4.495152853444868960E-16, 1.554767517369426200 ) ) ;
#166 = PERSON_AND_ORGANIZATION ( #241, #75 ) ;
#167 = DIRECTION ( 'NONE',  ( -3.491481338843133355E-15, 1.224646799147353207E-16, -1.000000000000000000 ) ) ;
#168 = PERSON_AND_ORGANIZATION ( #241, #75 ) ;
#169 = APPLICATION_PROTOCOL_DEFINITION ( 'international standard', 'config_control_design', 1994, #172 ) ;
#170 = DIRECTION ( 'NONE',  ( -3.491481338843133355E-15, 1.224646799147353207E-16, -1.000000000000000000 ) ) ;
#171 = DIRECTION ( 'NONE',  ( 1.000000000000000000, 0.0000000000000000000, 0.0000000000000000000 ) ) ;
#172 = APPLICATION_CONTEXT ( 'configuration controlled 3d designs of mechanical parts and assemblies' ) ;
#173 = ORIENTED_EDGE ( 'NONE', *, *, #209, .F. ) ;
#174 = LOCAL_TIME ( 8, 10, 0.0000000000000000000, #237 ) ;
#175 = FACE_OUTER_BOUND ( 'NONE', #97, .T. ) ;
#176 = DIRECTION ( 'NONE',  ( -3.491481338843133355E-15, 1.224646799147353207E-16, -1.000000000000000000 ) ) ;
#177 = TOROIDAL_SURFACE ( 'NONE', #16, 8.750000000000000000, 8.000000000000000000 ) ;
#178 = PERSON_AND_ORGANIZATION_ROLE ( 'creator' ) ;
#179 = DIRECTION ( 'NONE',  ( 0.0000000000000000000, 1.000000000000000000, 0.0000000000000000000 ) ) ;
#180 = CC_DESIGN_PERSON_AND_ORGANIZATION_ASSIGNMENT ( #8, #178, ( #93 ) ) ;
#181 = CALENDAR_DATE ( 2021, 24, 11 ) ;
#182 = DIRECTION ( 'NONE',  ( 0.0000000000000000000, 1.000000000000000000, 0.0000000000000000000 ) ) ;
#183 = DIRECTION ( 'NONE',  ( -3.491481338843133355E-15, 1.224646799147353207E-16, -1.000000000000000000 ) ) ;
#184 =( NAMED_UNIT ( * ) PLANE_ANGLE_UNIT ( ) SI_UNIT ( $, .RADIAN. ) );
#185 = DIRECTION ( 'NONE',  ( 3.491481338843133355E-15, -1.224646799147353207E-16, 1.000000000000000000 ) ) ;
#186 = ADVANCED_BREP_SHAPE_REPRESENTATION ( '976264', ( #154, #225, #145 ), #208 ) ;
#187 = VERTEX_POINT ( 'NONE', #220 ) ;
#188 = EDGE_CURVE ( 'NONE', #108, #108, #112, .T. ) ;
#189 = ORIENTED_EDGE ( 'NONE', *, *, #207, .T. ) ;
#190 = ORIENTED_EDGE ( 'NONE', *, *, #207, .F. ) ;
#191 = ORIENTED_EDGE ( 'NONE', *, *, #74, .F. ) ;
#192 = PRODUCT_DEFINITION_SHAPE ( 'NONE', 'NONE',  #93 ) ;
#193 = APPROVAL_PERSON_ORGANIZATION ( #200, #231, #141 ) ;
#194 = FACE_OUTER_BOUND ( 'NONE', #227, .T. ) ;
#195 = DIRECTION ( 'NONE',  ( 0.0000000000000000000, 1.000000000000000000, 0.0000000000000000000 ) ) ;
#196 = MECHANICAL_CONTEXT ( 'NONE', #20, 'mechanical' ) ;
#197 = CARTESIAN_POINT ( 'NONE',  ( 1.326762908760390423E-13, 8.998558695971103225E-33, 38.00000000000000000 ) ) ;
#198 = CALENDAR_DATE ( 2021, 24, 11 ) ;
#199 = AXIS2_PLACEMENT_3D ( 'NONE', #11, #64, #88 ) ;
#200 = PERSON_AND_ORGANIZATION ( #241, #75 ) ;
#201 = DIRECTION ( 'NONE',  ( 0.0000000000000000000, 1.000000000000000000, 0.0000000000000000000 ) ) ;
#202 = CARTESIAN_POINT ( 'NONE',  ( -4.275831445896958716E-32, 1.499759782661857779E-33, -1.224646799147353269E-17 ) ) ;
#203 = VERTEX_POINT ( 'NONE', #124 ) ;
#204 = VERTEX_POINT ( 'NONE', #131 ) ;
#205 = APPROVAL_DATE_TIME ( #86, #231 ) ;
#206 = AXIS2_PLACEMENT_3D ( 'NONE', #28, #104, #142 ) ;
#207 = EDGE_CURVE ( 'NONE', #148, #148, #54, .T. ) ;
#208 =( GEOMETRIC_REPRESENTATION_CONTEXT ( 3 ) GLOBAL_UNCERTAINTY_ASSIGNED_CONTEXT ( ( #111 ) ) GLOBAL_UNIT_ASSIGNED_CONTEXT ( ( #151, #184, #13 ) ) REPRESENTATION_CONTEXT ( 'NONE', 'WORKASPACE' ) );
#209 = EDGE_CURVE ( 'NONE', #153, #153, #92, .T. ) ;
#210 = ORIENTED_EDGE ( 'NONE', *, *, #113, .T. ) ;
#211 = CLOSED_SHELL ( 'NONE', ( #32, #133, #228 ) ) ;
#212 = EDGE_LOOP ( 'NONE', ( #41 ) ) ;
#213 = ORIENTED_EDGE ( 'NONE', *, *, #156, .T. ) ;
#214 = CARTESIAN_POINT ( 'NONE',  ( 8.030407079339206717E-15, 0.0000000000000000000, 2.299999999999999822 ) ) ;
#215 = DIRECTION ( 'NONE',  ( -4.275831445896958607E-31, -1.000000000000000000, -1.224646799147353207E-16 ) ) ;
#216 = COORDINATED_UNIVERSAL_TIME_OFFSET ( 1, 0, .AHEAD. ) ;
#217 = DIRECTION ( 'NONE',  ( 4.275831445896957731E-31, 1.000000000000000000, 1.224646799147353454E-16 ) ) ;
#218 = APPLICATION_PROTOCOL_DEFINITION ( 'international standard', 'config_control_design', 1994, #20 ) ;
#219 = PLANE ( 'NONE',  #155 ) ;
#220 = CARTESIAN_POINT ( 'NONE',  ( 1.983837810246228641E-14, 1.499999999999996225, 5.681937314617162116 ) ) ;
#221 = SHAPE_DEFINITION_REPRESENTATION ( #192, #186 ) ;
#222 = CARTESIAN_POINT ( 'NONE',  ( 0.0000000000000000000, 0.0000000000000000000, 0.0000000000000000000 ) ) ;
#223 = ADVANCED_FACE ( 'NONE', ( #123, #232 ), #157, .T. ) ;
#224 = APPROVAL_PERSON_ORGANIZATION ( #161, #51, #147 ) ;
#225 = MANIFOLD_SOLID_BREP ( 'Corps-Déplacer/Copier1[2]', #211 ) ;
#226 = CIRCLE ( 'NONE', #12, 1.200000000000003286 ) ;
#227 = EDGE_LOOP ( 'NONE', ( #94 ) ) ;
#228 = ADVANCED_FACE ( 'NONE', ( #239 ), #33, .T. ) ;
#229 = FACE_OUTER_BOUND ( 'NONE', #18, .T. ) ;
#230 = AXIS2_PLACEMENT_3D ( 'NONE', #99, #183, #195 ) ;
#231 = APPROVAL ( #61, 'UNSPECIFIED' ) ;
#232 = FACE_BOUND ( 'NONE', #118, .T. ) ;
#233 = DIRECTION ( 'NONE',  ( -3.491481338843133355E-15, 1.224646799147353207E-16, -1.000000000000000000 ) ) ;
#234 = DATE_TIME_ROLE ( 'creation_date' ) ;
#235 = FACE_OUTER_BOUND ( 'NONE', #38, .T. ) ;
#236 = DATE_TIME_ROLE ( 'classification_date' ) ;
#237 = COORDINATED_UNIVERSAL_TIME_OFFSET ( 1, 0, .AHEAD. ) ;
#238 = CC_DESIGN_APPROVAL ( #96, ( #93 ) ) ;
#239 = FACE_OUTER_BOUND ( 'NONE', #159, .T. ) ;
#240 = PERSON_AND_ORGANIZATION ( #241, #75 ) ;
#241 = PERSON ( 'UNSPECIFIED', 'UNSPECIFIED', 'UNSPECIFIED', ('UNSPECIFIED'), ('UNSPECIFIED'), ('UNSPECIFIED') ) ;
#242 = PERSON_AND_ORGANIZATION_ROLE ( 'design_owner' ) ;
#243 = AXIS2_PLACEMENT_3D ( 'NONE', #84, #167, #201 ) ;
ENDSEC;
END-ISO-10303-21;
