ISO-10303-21;
HEADER;
FILE_DESCRIPTION (( 'STEP AP203' ),
    '1' );
FILE_NAME ('976263.step',
    '2021-11-24T06:51:41',
    ( '' ),
    ( '' ),
    'SwSTEP 2.0',
    'SolidWorks 2019',
    '' );
FILE_SCHEMA (( 'CONFIG_CONTROL_DESIGN' ));
ENDSEC;

DATA;
#1 = CIRCLE ( 'NONE', #114, 1.500000000000003331 ) ;
#2 = DIRECTION ( 'NONE',  ( -3.491481338843133355E-15, 1.224646799147353207E-16, -1.000000000000000000 ) ) ;
#3 = CARTESIAN_POINT ( 'NONE',  ( 5.054066478435866660E-15, 0.7499999999999997780, 1.447542171343948691 ) ) ;
#4 = ADVANCED_FACE ( 'NONE', ( #175, #95 ), #74, .T. ) ;
#5 = LOCAL_TIME ( 7, 51, 41.00000000000000000, #15 ) ;
#6 =( LENGTH_UNIT ( ) NAMED_UNIT ( * ) SI_UNIT ( .MILLI., .METRE. ) );
#7 = FACE_OUTER_BOUND ( 'NONE', #111, .T. ) ;
#8 = DIRECTION ( 'NONE',  ( 0.0000000000000000000, 1.000000000000000000, 0.0000000000000000000 ) ) ;
#9 = CALENDAR_DATE ( 2021, 24, 11 ) ;
#10 = EDGE_LOOP ( 'NONE', ( #208 ) ) ;
#11 = APPROVAL_PERSON_ORGANIZATION ( #133, #199, #211 ) ;
#12 = FACE_OUTER_BOUND ( 'NONE', #30, .T. ) ;
#13 = PERSON_AND_ORGANIZATION_ROLE ( 'design_supplier' ) ;
#14 = DIRECTION ( 'NONE',  ( -3.491481338843133355E-15, 1.224646799147353207E-16, -1.000000000000000000 ) ) ;
#15 = COORDINATED_UNIVERSAL_TIME_OFFSET ( 1, 0, .AHEAD. ) ;
#16 = CLOSED_SHELL ( 'NONE', ( #21, #195, #215, #94, #180, #69 ) ) ;
#17 = PRODUCT_DEFINITION_FORMATION_WITH_SPECIFIED_SOURCE ( 'ANY', '', #229, .NOT_KNOWN. ) ;
#18 = AXIS2_PLACEMENT_3D ( 'NONE', #237, #125, #67 ) ;
#19 = AXIS2_PLACEMENT_3D ( 'NONE', #239, #66, #129 ) ;
#20 = APPROVAL_ROLE ( '' ) ;
#21 = ADVANCED_FACE ( 'NONE', ( #207 ), #204, .F. ) ;
#22 = DIRECTION ( 'NONE',  ( -3.491481338843133355E-15, 1.224646799147353207E-16, -1.000000000000000000 ) ) ;
#23 = ORIENTED_EDGE ( 'NONE', *, *, #182, .T. ) ;
#24 = ORIENTED_EDGE ( 'NONE', *, *, #117, .F. ) ;
#25 = AXIS2_PLACEMENT_3D ( 'NONE', #157, #14, #96 ) ;
#26 = CC_DESIGN_SECURITY_CLASSIFICATION ( #97, ( #17 ) ) ;
#27 = CARTESIAN_POINT ( 'NONE',  ( 1.316288464743861212E-13, 1.499999999999998668, 37.69999999999999574 ) ) ;
#28 = PRODUCT_DEFINITION ( 'UNKNOWN', '', #17, #137 ) ;
#29 = DIRECTION ( 'NONE',  ( 1.000000000000000000, 0.0000000000000000000, 0.0000000000000000000 ) ) ;
#30 = EDGE_LOOP ( 'NONE', ( #172 ) ) ;
#31 = CARTESIAN_POINT ( 'NONE',  ( 1.326762908760390423E-13, 8.998558695971103225E-33, 38.00000000000000000 ) ) ;
#32 = PLANE ( 'NONE',  #136 ) ;
#33 = COORDINATED_UNIVERSAL_TIME_OFFSET ( 1, 0, .AHEAD. ) ;
#34 = SHAPE_DEFINITION_REPRESENTATION ( #214, #145 ) ;
#35 = CIRCLE ( 'NONE', #163, 0.7500000000000000000 ) ;
#36 = PERSON ( 'UNSPECIFIED', 'UNSPECIFIED', 'UNSPECIFIED', ('UNSPECIFIED'), ('UNSPECIFIED'), ('UNSPECIFIED') ) ;
#37 = VERTEX_POINT ( 'NONE', #43 ) ;
#38 = TOROIDAL_SURFACE ( 'NONE', #203, 8.750000000000000000, 8.000000000000000000 ) ;
#39 = ORGANIZATION ( 'UNSPECIFIED', 'UNSPECIFIED', '' ) ;
#40 = APPLICATION_PROTOCOL_DEFINITION ( 'international standard', 'config_control_design', 1994, #98 ) ;
#41 = CARTESIAN_POINT ( 'NONE',  ( 1.068957861474239405E-32, 0.07499999999999999722, 3.061616997868381631E-18 ) ) ;
#42 = EDGE_LOOP ( 'NONE', ( #46 ) ) ;
#43 = CARTESIAN_POINT ( 'NONE',  ( 1.326762908760390423E-13, 1.199999999999998845, 38.00000000000000000 ) ) ;
#44 = DIRECTION ( 'NONE',  ( -3.491481338843133355E-15, 1.224646799147353207E-16, -1.000000000000000000 ) ) ;
#45 = AXIS2_PLACEMENT_3D ( 'NONE', #31, #123, #89 ) ;
#46 = ORIENTED_EDGE ( 'NONE', *, *, #80, .F. ) ;
#47 = DIRECTION ( 'NONE',  ( 3.491481338843133355E-15, -1.224646799147353207E-16, 1.000000000000000000 ) ) ;
#48 = APPROVAL_DATE_TIME ( #153, #199 ) ;
#49 = PLANE ( 'NONE',  #183 ) ;
#50 = ADVANCED_FACE ( 'NONE', ( #149 ), #32, .F. ) ;
#51 = CIRCLE ( 'NONE', #209, 1.499999999999996669 ) ;
#52 = FACE_OUTER_BOUND ( 'NONE', #10, .T. ) ;
#53 = DATE_AND_TIME ( #9, #210 ) ;
#54 = PERSON_AND_ORGANIZATION ( #36, #39 ) ;
#55 = APPROVAL ( #160, 'UNSPECIFIED' ) ;
#56 = AXIS2_PLACEMENT_3D ( 'NONE', #87, #121, #191 ) ;
#57 = MANIFOLD_SOLID_BREP ( 'Corps-Déplacer/Copier1[1]', #16 ) ;
#58 = LOCAL_TIME ( 7, 51, 41.00000000000000000, #88 ) ;
#59 = PERSON_AND_ORGANIZATION_ROLE ( 'design_owner' ) ;
#60 = PRODUCT_RELATED_PRODUCT_CATEGORY ( 'detail', '', ( #229 ) ) ;
#61 = DIRECTION ( 'NONE',  ( 4.355100981429076768E-31, 1.000000000000000000, 1.224646799147353207E-16 ) ) ;
#62 = MECHANICAL_CONTEXT ( 'NONE', #164, 'mechanical' ) ;
#63 = ORIENTED_EDGE ( 'NONE', *, *, #138, .F. ) ;
#64 = CARTESIAN_POINT ( 'NONE',  ( 5.054066478435866660E-15, 0.7499999999999997780, 1.447542171343948691 ) ) ;
#65 = DIRECTION ( 'NONE',  ( -3.491481338843133355E-15, 1.224646799147353207E-16, -1.000000000000000000 ) ) ;
#66 = DIRECTION ( 'NONE',  ( 3.491481338843133355E-15, -1.224646799147353207E-16, 1.000000000000000000 ) ) ;
#67 = DIRECTION ( 'NONE',  ( -4.275831445896958607E-31, -1.000000000000000000, -1.224646799147353207E-16 ) ) ;
#68 = CARTESIAN_POINT ( 'NONE',  ( 0.0000000000000000000, 0.0000000000000000000, 0.0000000000000000000 ) ) ;
#69 = ADVANCED_FACE ( 'NONE', ( #7 ), #128, .F. ) ;
#70 = DIRECTION ( 'NONE',  ( 0.0000000000000000000, 1.000000000000000000, 0.0000000000000000000 ) ) ;
#71 = DATE_TIME_ROLE ( 'creation_date' ) ;
#72 = DIRECTION ( 'NONE',  ( -3.491481338843133355E-15, 1.224646799147353207E-16, -1.000000000000000000 ) ) ;
#73 = CALENDAR_DATE ( 2021, 24, 11 ) ;
#74 = CONICAL_SURFACE ( 'NONE', #19, 0.07499999999999999722, 0.4363323129985833271 ) ;
#75 = APPROVAL_PERSON_ORGANIZATION ( #221, #232, #20 ) ;
#76 = PERSON_AND_ORGANIZATION ( #36, #39 ) ;
#77 = EDGE_LOOP ( 'NONE', ( #99 ) ) ;
#78 = CC_DESIGN_PERSON_AND_ORGANIZATION_ASSIGNMENT ( #134, #13, ( #17 ) ) ;
#79 = AXIS2_PLACEMENT_3D ( 'NONE', #241, #178, #70 ) ;
#80 = EDGE_CURVE ( 'NONE', #81, #81, #51, .T. ) ;
#81 = VERTEX_POINT ( 'NONE', #146 ) ;
#82 = EDGE_LOOP ( 'NONE', ( #24 ) ) ;
#83 = APPROVAL_STATUS ( 'not_yet_approved' ) ;
#84 = ORIENTED_EDGE ( 'NONE', *, *, #235, .T. ) ;
#85 = VERTEX_POINT ( 'NONE', #188 ) ;
#86 = EDGE_LOOP ( 'NONE', ( #223 ) ) ;
#87 = CARTESIAN_POINT ( 'NONE',  ( -2.137915722948479358E-32, 7.498798913309288894E-34, -6.123233995736766344E-18 ) ) ;
#88 = COORDINATED_UNIVERSAL_TIME_OFFSET ( 1, 0, .AHEAD. ) ;
#89 = DIRECTION ( 'NONE',  ( 4.275831445896958607E-31, 1.000000000000000000, 1.224646799147353207E-16 ) ) ;
#90 =( NAMED_UNIT ( * ) SI_UNIT ( $, .STERADIAN. ) SOLID_ANGLE_UNIT ( ) );
#91 = EDGE_LOOP ( 'NONE', ( #63 ) ) ;
#92 = CALENDAR_DATE ( 2021, 24, 11 ) ;
#93 = EDGE_LOOP ( 'NONE', ( #23 ) ) ;
#94 = ADVANCED_FACE ( 'NONE', ( #174, #12 ), #240, .T. ) ;
#95 = FACE_BOUND ( 'NONE', #82, .T. ) ;
#96 = DIRECTION ( 'NONE',  ( 0.0000000000000000000, 1.000000000000000000, 0.0000000000000000000 ) ) ;
#97 = SECURITY_CLASSIFICATION ( '', '', #151 ) ;
#98 = APPLICATION_CONTEXT ( 'configuration controlled 3d designs of mechanical parts and assemblies' ) ;
#99 = ORIENTED_EDGE ( 'NONE', *, *, #182, .F. ) ;
#100 = UNCERTAINTY_MEASURE_WITH_UNIT (LENGTH_MEASURE( 1.000000000000000082E-05 ), #6, 'distance_accuracy_value', 'NONE');
#101 = CC_DESIGN_PERSON_AND_ORGANIZATION_ASSIGNMENT ( #142, #218, ( #28 ) ) ;
#102 = LOCAL_TIME ( 7, 51, 41.00000000000000000, #212 ) ;
#103 = CARTESIAN_POINT ( 'NONE',  ( 0.0000000000000000000, 0.0000000000000000000, 0.0000000000000000000 ) ) ;
#104 = PERSON_AND_ORGANIZATION ( #36, #39 ) ;
#105 = CARTESIAN_POINT ( 'NONE',  ( 0.0000000000000000000, 0.0000000000000000000, 0.0000000000000000000 ) ) ;
#106 = ADVANCED_FACE ( 'NONE', ( #112 ), #49, .T. ) ;
#107 = EDGE_LOOP ( 'NONE', ( #84 ) ) ;
#108 = DIRECTION ( 'NONE',  ( -4.275831445896958607E-31, -1.000000000000000000, -1.224646799147353207E-16 ) ) ;
#109 =( NAMED_UNIT ( * ) PLANE_ANGLE_UNIT ( ) SI_UNIT ( $, .RADIAN. ) );
#110 = DIRECTION ( 'NONE',  ( -3.491481338843133355E-15, 1.224646799147353207E-16, -1.000000000000000000 ) ) ;
#111 = EDGE_LOOP ( 'NONE', ( #230 ) ) ;
#112 = FACE_OUTER_BOUND ( 'NONE', #91, .T. ) ;
#113 = PERSON_AND_ORGANIZATION ( #36, #39 ) ;
#114 = AXIS2_PLACEMENT_3D ( 'NONE', #220, #110, #8 ) ;
#115 = LOCAL_TIME ( 7, 51, 41.00000000000000000, #33 ) ;
#116 = APPROVAL_PERSON_ORGANIZATION ( #76, #55, #196 ) ;
#117 = EDGE_CURVE ( 'NONE', #168, #168, #222, .T. ) ;
#118 = DIRECTION ( 'NONE',  ( 0.0000000000000000000, 1.000000000000000000, 0.0000000000000000000 ) ) ;
#119 = CIRCLE ( 'NONE', #200, 0.7500000000000000000 ) ;
#120 = CARTESIAN_POINT ( 'NONE',  ( 8.030407079339206717E-15, 0.0000000000000000000, 2.299999999999999822 ) ) ;
#121 = DIRECTION ( 'NONE',  ( -3.491481338843133355E-15, 1.224646799147353207E-16, -1.000000000000000000 ) ) ;
#122 = FACE_OUTER_BOUND ( 'NONE', #234, .T. ) ;
#123 = DIRECTION ( 'NONE',  ( -3.491481338843133355E-15, 1.224646799147353207E-16, -1.000000000000000000 ) ) ;
#124 =( GEOMETRIC_REPRESENTATION_CONTEXT ( 3 ) GLOBAL_UNCERTAINTY_ASSIGNED_CONTEXT ( ( #100 ) ) GLOBAL_UNIT_ASSIGNED_CONTEXT ( ( #6, #109, #90 ) ) REPRESENTATION_CONTEXT ( 'NONE', 'WORKASPACE' ) );
#125 = DIRECTION ( 'NONE',  ( 3.491481338843133355E-15, -1.224646799147353207E-16, 1.000000000000000000 ) ) ;
#126 = CC_DESIGN_PERSON_AND_ORGANIZATION_ASSIGNMENT ( #104, #59, ( #229 ) ) ;
#127 = PERSON_AND_ORGANIZATION_ROLE ( 'classification_officer' ) ;
#128 = PLANE ( 'NONE',  #45 ) ;
#129 = DIRECTION ( 'NONE',  ( -4.275831445896959482E-31, -1.000000000000000000, -1.224646799147352961E-16 ) ) ;
#130 = CONICAL_SURFACE ( 'NONE', #25, 1.200000000000003286, 0.7853981633974453924 ) ;
#131 = APPROVAL_DATE_TIME ( #228, #55 ) ;
#132 = CC_DESIGN_DATE_AND_TIME_ASSIGNMENT ( #53, #71, ( #28 ) ) ;
#133 = PERSON_AND_ORGANIZATION ( #36, #39 ) ;
#134 = PERSON_AND_ORGANIZATION ( #36, #39 ) ;
#135 = FACE_OUTER_BOUND ( 'NONE', #224, .T. ) ;
#136 = AXIS2_PLACEMENT_3D ( 'NONE', #152, #47, #108 ) ;
#137 = DESIGN_CONTEXT ( 'detailed design', #98, 'design' ) ;
#138 = EDGE_CURVE ( 'NONE', #140, #140, #119, .T. ) ;
#139 = ORIENTED_EDGE ( 'NONE', *, *, #80, .T. ) ;
#140 = VERTEX_POINT ( 'NONE', #3 ) ;
#141 = MANIFOLD_SOLID_BREP ( 'Corps-Déplacer/Copier1[2]', #165 ) ;
#142 = PERSON_AND_ORGANIZATION ( #36, #39 ) ;
#143 = APPROVAL_DATE_TIME ( #233, #232 ) ;
#144 = DIRECTION ( 'NONE',  ( 4.275831445896959482E-31, 1.000000000000000000, 1.224646799147353207E-16 ) ) ;
#145 = ADVANCED_BREP_SHAPE_REPRESENTATION ( '976263', ( #57, #141, #184 ), #124 ) ;
#146 = CARTESIAN_POINT ( 'NONE',  ( 1.983837810246228641E-14, 1.499999999999996225, 5.681937314617162116 ) ) ;
#147 = DIRECTION ( 'NONE',  ( -4.275831445896958607E-31, -1.000000000000000000, -1.224646799147353207E-16 ) ) ;
#148 = DIRECTION ( 'NONE',  ( 4.275831445896958607E-31, 1.000000000000000000, 1.224646799147353207E-16 ) ) ;
#149 = FACE_OUTER_BOUND ( 'NONE', #225, .T. ) ;
#150 = CIRCLE ( 'NONE', #169, 1.200000000000003286 ) ;
#151 = SECURITY_CLASSIFICATION_LEVEL ( 'unclassified' ) ;
#152 = CARTESIAN_POINT ( 'NONE',  ( -1.068957861474239679E-32, 3.749399456654644447E-34, -3.061616997868383172E-18 ) ) ;
#153 = DATE_AND_TIME ( #92, #102 ) ;
#154 = DIRECTION ( 'NONE',  ( -3.491481338843133355E-15, 1.224646799147353207E-16, -1.000000000000000000 ) ) ;
#155 = FACE_OUTER_BOUND ( 'NONE', #77, .T. ) ;
#156 = PERSON_AND_ORGANIZATION_ROLE ( 'creator' ) ;
#157 = CARTESIAN_POINT ( 'NONE',  ( 1.326762908760390423E-13, -4.653657836759941941E-15, 38.00000000000000000 ) ) ;
#158 = EDGE_CURVE ( 'NONE', #217, #217, #1, .T. ) ;
#159 = DATE_TIME_ROLE ( 'classification_date' ) ;
#160 = APPROVAL_STATUS ( 'not_yet_approved' ) ;
#161 = CC_DESIGN_DATE_AND_TIME_ASSIGNMENT ( #192, #159, ( #97 ) ) ;
#162 = ORIENTED_EDGE ( 'NONE', *, *, #185, .F. ) ;
#163 = AXIS2_PLACEMENT_3D ( 'NONE', #179, #72, #242 ) ;
#164 = APPLICATION_CONTEXT ( 'configuration controlled 3d designs of mechanical parts and assemblies' ) ;
#165 = CLOSED_SHELL ( 'NONE', ( #50, #4, #106 ) ) ;
#166 = CALENDAR_DATE ( 2021, 24, 11 ) ;
#167 = CC_DESIGN_PERSON_AND_ORGANIZATION_ASSIGNMENT ( #113, #156, ( #17 ) ) ;
#168 = VERTEX_POINT ( 'NONE', #41 ) ;
#169 = AXIS2_PLACEMENT_3D ( 'NONE', #236, #2, #118 ) ;
#170 = CARTESIAN_POINT ( 'NONE',  ( 5.054066478435866660E-15, 5.624099184981963292E-33, 1.447542171343948691 ) ) ;
#171 = FACE_OUTER_BOUND ( 'NONE', #193, .T. ) ;
#172 = ORIENTED_EDGE ( 'NONE', *, *, #158, .T. ) ;
#173 = CYLINDRICAL_SURFACE ( 'NONE', #198, 0.7500000000000004441 ) ;
#174 = FACE_OUTER_BOUND ( 'NONE', #42, .T. ) ;
#175 = FACE_OUTER_BOUND ( 'NONE', #86, .T. ) ;
#176 = AXIS2_PLACEMENT_3D ( 'NONE', #68, #154, #144 ) ;
#177 = DIRECTION ( 'NONE',  ( 0.0000000000000000000, 1.000000000000000000, 0.0000000000000000000 ) ) ;
#178 = DIRECTION ( 'NONE',  ( -3.491481338843133355E-15, 1.224646799147353207E-16, -1.000000000000000000 ) ) ;
#179 = CARTESIAN_POINT ( 'NONE',  ( 5.054066478435866660E-15, -1.772727886767176174E-16, 1.447542171343948691 ) ) ;
#180 = ADVANCED_FACE ( 'NONE', ( #52, #227 ), #130, .T. ) ;
#181 = CC_DESIGN_APPROVAL ( #55, ( #17 ) ) ;
#182 = EDGE_CURVE ( 'NONE', #190, #190, #35, .T. ) ;
#183 = AXIS2_PLACEMENT_3D ( 'NONE', #170, #197, #147 ) ;
#184 = AXIS2_PLACEMENT_3D ( 'NONE', #103, #205, #29 ) ;
#185 = EDGE_CURVE ( 'NONE', #85, #85, #231, .T. ) ;
#186 = ORIENTED_EDGE ( 'NONE', *, *, #117, .T. ) ;
#187 = COORDINATED_UNIVERSAL_TIME_OFFSET ( 1, 0, .AHEAD. ) ;
#188 = CARTESIAN_POINT ( 'NONE',  ( 8.030407079339206717E-15, 0.7500000000000006661, 2.299999999999999822 ) ) ;
#189 = DIRECTION ( 'NONE',  ( 0.0000000000000000000, 1.000000000000000000, 0.0000000000000000000 ) ) ;
#190 = VERTEX_POINT ( 'NONE', #64 ) ;
#191 = DIRECTION ( 'NONE',  ( 4.275831445896958607E-31, 1.000000000000000000, 1.224646799147352961E-16 ) ) ;
#192 = DATE_AND_TIME ( #73, #5 ) ;
#193 = EDGE_LOOP ( 'NONE', ( #162 ) ) ;
#194 = CARTESIAN_POINT ( 'NONE',  ( 1.983837810246228641E-14, -6.958366345301815590E-16, 5.681937314617162116 ) ) ;
#195 = ADVANCED_FACE ( 'NONE', ( #135, #155 ), #173, .T. ) ;
#196 = APPROVAL_ROLE ( '' ) ;
#197 = DIRECTION ( 'NONE',  ( 3.491481338843133355E-15, -1.224646799147353207E-16, 1.000000000000000000 ) ) ;
#198 = AXIS2_PLACEMENT_3D ( 'NONE', #105, #219, #148 ) ;
#199 = APPROVAL ( #226, 'UNSPECIFIED' ) ;
#200 = AXIS2_PLACEMENT_3D ( 'NONE', #202, #44, #189 ) ;
#201 = APPLICATION_PROTOCOL_DEFINITION ( 'international standard', 'config_control_design', 1994, #164 ) ;
#202 = CARTESIAN_POINT ( 'NONE',  ( 5.054066478435866660E-15, -1.772727886767176174E-16, 1.447542171343948691 ) ) ;
#203 = AXIS2_PLACEMENT_3D ( 'NONE', #120, #22, #61 ) ;
#204 = PLANE ( 'NONE',  #18 ) ;
#205 = DIRECTION ( 'NONE',  ( 0.0000000000000000000, 0.0000000000000000000, 1.000000000000000000 ) ) ;
#206 = ORIENTED_EDGE ( 'NONE', *, *, #185, .T. ) ;
#207 = FACE_OUTER_BOUND ( 'NONE', #93, .T. ) ;
#208 = ORIENTED_EDGE ( 'NONE', *, *, #158, .F. ) ;
#209 = AXIS2_PLACEMENT_3D ( 'NONE', #194, #65, #177 ) ;
#210 = LOCAL_TIME ( 7, 51, 41.00000000000000000, #187 ) ;
#211 = APPROVAL_ROLE ( '' ) ;
#212 = COORDINATED_UNIVERSAL_TIME_OFFSET ( 1, 0, .AHEAD. ) ;
#213 = CC_DESIGN_APPROVAL ( #199, ( #97 ) ) ;
#214 = PRODUCT_DEFINITION_SHAPE ( 'NONE', 'NONE',  #28 ) ;
#215 = ADVANCED_FACE ( 'NONE', ( #122, #171 ), #38, .F. ) ;
#216 = CC_DESIGN_APPROVAL ( #232, ( #28 ) ) ;
#217 = VERTEX_POINT ( 'NONE', #27 ) ;
#218 = PERSON_AND_ORGANIZATION_ROLE ( 'creator' ) ;
#219 = DIRECTION ( 'NONE',  ( -3.491481338843133355E-15, 1.224646799147353207E-16, -1.000000000000000000 ) ) ;
#220 = CARTESIAN_POINT ( 'NONE',  ( 1.316288464743861212E-13, -4.616918432785521081E-15, 37.69999999999999574 ) ) ;
#221 = PERSON_AND_ORGANIZATION ( #36, #39 ) ;
#222 = CIRCLE ( 'NONE', #56, 0.07499999999999999722 ) ;
#223 = ORIENTED_EDGE ( 'NONE', *, *, #138, .T. ) ;
#224 = EDGE_LOOP ( 'NONE', ( #206 ) ) ;
#225 = EDGE_LOOP ( 'NONE', ( #186 ) ) ;
#226 = APPROVAL_STATUS ( 'not_yet_approved' ) ;
#227 = FACE_BOUND ( 'NONE', #107, .T. ) ;
#228 = DATE_AND_TIME ( #243, #115 ) ;
#229 = PRODUCT ( '976263', '976263', '', ( #62 ) ) ;
#230 = ORIENTED_EDGE ( 'NONE', *, *, #235, .F. ) ;
#231 = CIRCLE ( 'NONE', #79, 0.7500000000000009992 ) ;
#232 = APPROVAL ( #83, 'UNSPECIFIED' ) ;
#233 = DATE_AND_TIME ( #166, #58 ) ;
#234 = EDGE_LOOP ( 'NONE', ( #139 ) ) ;
#235 = EDGE_CURVE ( 'NONE', #37, #37, #150, .T. ) ;
#236 = CARTESIAN_POINT ( 'NONE',  ( 1.326762908760390423E-13, -4.653657836759941941E-15, 38.00000000000000000 ) ) ;
#237 = CARTESIAN_POINT ( 'NONE',  ( 5.054066478435866660E-15, 5.624099184981963292E-33, 1.447542171343948691 ) ) ;
#238 = CC_DESIGN_PERSON_AND_ORGANIZATION_ASSIGNMENT ( #54, #127, ( #97 ) ) ;
#239 = CARTESIAN_POINT ( 'NONE',  ( -2.137915722948479358E-32, 7.498798913309288894E-34, -6.123233995736766344E-18 ) ) ;
#240 = CYLINDRICAL_SURFACE ( 'NONE', #176, 1.500000000000000000 ) ;
#241 = CARTESIAN_POINT ( 'NONE',  ( 8.030407079339206717E-15, -2.816687638038912056E-16, 2.299999999999999822 ) ) ;
#242 = DIRECTION ( 'NONE',  ( 0.0000000000000000000, 1.000000000000000000, 0.0000000000000000000 ) ) ;
#243 = CALENDAR_DATE ( 2021, 24, 11 ) ;
ENDSEC;
END-ISO-10303-21;
