ISO-10303-21;
HEADER;
FILE_DESCRIPTION (( 'STEP AP203' ),
    '1' );
FILE_NAME ('976261.step',
    '2021-11-24T06:51:40',
    ( '' ),
    ( '' ),
    'SwSTEP 2.0',
    'SolidWorks 2019',
    '' );
FILE_SCHEMA (( 'CONFIG_CONTROL_DESIGN' ));
ENDSEC;

DATA;
#1 = PERSON_AND_ORGANIZATION_ROLE ( 'classification_officer' ) ;
#2 = CARTESIAN_POINT ( 'NONE',  ( 1.326762908760390423E-13, 8.998558695971103225E-33, 38.00000000000000000 ) ) ;
#3 = PERSON_AND_ORGANIZATION ( #31, #58 ) ;
#4 = FACE_OUTER_BOUND ( 'NONE', #217, .T. ) ;
#5 = EDGE_LOOP ( 'NONE', ( #76 ) ) ;
#6 = APPROVAL_ROLE ( '' ) ;
#7 = CC_DESIGN_PERSON_AND_ORGANIZATION_ASSIGNMENT ( #101, #69, ( #133 ) ) ;
#8 =( NAMED_UNIT ( * ) SI_UNIT ( $, .STERADIAN. ) SOLID_ANGLE_UNIT ( ) );
#9 = VERTEX_POINT ( 'NONE', #130 ) ;
#10 = AXIS2_PLACEMENT_3D ( 'NONE', #117, #180, #161 ) ;
#11 = DIRECTION ( 'NONE',  ( -3.491481338843133355E-15, 1.224646799147353207E-16, -1.000000000000000000 ) ) ;
#12 = AXIS2_PLACEMENT_3D ( 'NONE', #136, #53, #225 ) ;
#13 = EDGE_CURVE ( 'NONE', #165, #165, #200, .T. ) ;
#14 = DIRECTION ( 'NONE',  ( 0.0000000000000000000, 1.000000000000000000, 0.0000000000000000000 ) ) ;
#15 = CALENDAR_DATE ( 2021, 24, 11 ) ;
#16 = PLANE ( 'NONE',  #210 ) ;
#17 = CALENDAR_DATE ( 2021, 24, 11 ) ;
#18 = PLANE ( 'NONE',  #229 ) ;
#19 = DESIGN_CONTEXT ( 'detailed design', #85, 'design' ) ;
#20 = CALENDAR_DATE ( 2021, 24, 11 ) ;
#21 = FACE_OUTER_BOUND ( 'NONE', #120, .T. ) ;
#22 = EDGE_LOOP ( 'NONE', ( #159 ) ) ;
#23 = COORDINATED_UNIVERSAL_TIME_OFFSET ( 1, 0, .AHEAD. ) ;
#24 = DIRECTION ( 'NONE',  ( 4.275831445896959482E-31, 1.000000000000000000, 1.224646799147353207E-16 ) ) ;
#25 = AXIS2_PLACEMENT_3D ( 'NONE', #110, #46, #55 ) ;
#26 = APPROVAL_ROLE ( '' ) ;
#27 = DATE_AND_TIME ( #230, #36 ) ;
#28 = ADVANCED_FACE ( 'NONE', ( #195 ), #104, .F. ) ;
#29 = APPROVAL_PERSON_ORGANIZATION ( #3, #134, #6 ) ;
#30 = TOROIDAL_SURFACE ( 'NONE', #105, 8.750000000000000000, 8.000000000000000000 ) ;
#31 = PERSON ( 'UNSPECIFIED', 'UNSPECIFIED', 'UNSPECIFIED', ('UNSPECIFIED'), ('UNSPECIFIED'), ('UNSPECIFIED') ) ;
#32 = DIRECTION ( 'NONE',  ( 0.0000000000000000000, 1.000000000000000000, 0.0000000000000000000 ) ) ;
#33 = ADVANCED_FACE ( 'NONE', ( #198, #238 ), #216, .T. ) ;
#34 = DIRECTION ( 'NONE',  ( 4.275831445896958607E-31, 1.000000000000000000, 1.224646799147353207E-16 ) ) ;
#35 = FACE_OUTER_BOUND ( 'NONE', #5, .T. ) ;
#36 = LOCAL_TIME ( 7, 51, 40.00000000000000000, #146 ) ;
#37 = PLANE ( 'NONE',  #10 ) ;
#38 = CC_DESIGN_PERSON_AND_ORGANIZATION_ASSIGNMENT ( #224, #164, ( #181 ) ) ;
#39 = PERSON_AND_ORGANIZATION ( #31, #58 ) ;
#40 = FACE_OUTER_BOUND ( 'NONE', #108, .T. ) ;
#41 = MECHANICAL_CONTEXT ( 'NONE', #231, 'mechanical' ) ;
#42 = CONICAL_SURFACE ( 'NONE', #82, 0.05000000000000000278, 0.4363323129985833271 ) ;
#43 = CARTESIAN_POINT ( 'NONE',  ( 1.983837810246228641E-14, 1.499999999999996225, 5.681937314617162116 ) ) ;
#44 = AXIS2_PLACEMENT_3D ( 'NONE', #144, #138, #14 ) ;
#45 = PRODUCT_DEFINITION_SHAPE ( 'NONE', 'NONE',  #181 ) ;
#46 = DIRECTION ( 'NONE',  ( -3.491481338843133355E-15, 1.224646799147353207E-16, -1.000000000000000000 ) ) ;
#47 = ORIENTED_EDGE ( 'NONE', *, *, #209, .F. ) ;
#48 = DIRECTION ( 'NONE',  ( -4.275831445896958607E-31, -1.000000000000000000, -1.224646799147353207E-16 ) ) ;
#49 = ORIENTED_EDGE ( 'NONE', *, *, #155, .T. ) ;
#50 = LOCAL_TIME ( 7, 51, 40.00000000000000000, #242 ) ;
#51 = CARTESIAN_POINT ( 'NONE',  ( -1.710332578358783705E-32, 5.999039130647431458E-34, -4.898587196589413537E-18 ) ) ;
#52 = ORIENTED_EDGE ( 'NONE', *, *, #163, .T. ) ;
#53 = DIRECTION ( 'NONE',  ( -3.491481338843133355E-15, 1.224646799147353207E-16, -1.000000000000000000 ) ) ;
#54 = AXIS2_PLACEMENT_3D ( 'NONE', #90, #152, #115 ) ;
#55 = DIRECTION ( 'NONE',  ( 0.0000000000000000000, 1.000000000000000000, 0.0000000000000000000 ) ) ;
#56 = CARTESIAN_POINT ( 'NONE',  ( 1.326762908760390423E-13, -4.653657836759941941E-15, 38.00000000000000000 ) ) ;
#57 = VERTEX_POINT ( 'NONE', #207 ) ;
#58 = ORGANIZATION ( 'UNSPECIFIED', 'UNSPECIFIED', '' ) ;
#59 = CC_DESIGN_DATE_AND_TIME_ASSIGNMENT ( #201, #218, ( #182 ) ) ;
#60 =( NAMED_UNIT ( * ) PLANE_ANGLE_UNIT ( ) SI_UNIT ( $, .RADIAN. ) );
#61 = ADVANCED_FACE ( 'NONE', ( #154, #4 ), #205, .T. ) ;
#62 = MANIFOLD_SOLID_BREP ( 'Corps-Déplacer/Copier1[1]', #193 ) ;
#63 = AXIS2_PLACEMENT_3D ( 'NONE', #56, #232, #148 ) ;
#64 = AXIS2_PLACEMENT_3D ( 'NONE', #100, #177, #196 ) ;
#65 = DIRECTION ( 'NONE',  ( -3.491481338843133355E-15, 1.224646799147353207E-16, -1.000000000000000000 ) ) ;
#66 = DIRECTION ( 'NONE',  ( -3.491481338843133355E-15, 1.224646799147353207E-16, -1.000000000000000000 ) ) ;
#67 = AXIS2_PLACEMENT_3D ( 'NONE', #240, #66, #34 ) ;
#68 = ORIENTED_EDGE ( 'NONE', *, *, #137, .T. ) ;
#69 = PERSON_AND_ORGANIZATION_ROLE ( 'creator' ) ;
#70 = FACE_BOUND ( 'NONE', #162, .T. ) ;
#71 = EDGE_LOOP ( 'NONE', ( #139 ) ) ;
#72 = APPROVAL_DATE_TIME ( #27, #194 ) ;
#73 = DIRECTION ( 'NONE',  ( -3.491481338843133355E-15, 1.224646799147353207E-16, -1.000000000000000000 ) ) ;
#74 = DATE_AND_TIME ( #20, #97 ) ;
#75 = DIRECTION ( 'NONE',  ( -3.491481338843133355E-15, 1.224646799147353207E-16, -1.000000000000000000 ) ) ;
#76 = ORIENTED_EDGE ( 'NONE', *, *, #156, .F. ) ;
#77 = CALENDAR_DATE ( 2021, 24, 11 ) ;
#78 = VERTEX_POINT ( 'NONE', #128 ) ;
#79 = CARTESIAN_POINT ( 'NONE',  ( 0.0000000000000000000, 0.0000000000000000000, 0.0000000000000000000 ) ) ;
#80 = ADVANCED_FACE ( 'NONE', ( #40, #70 ), #172, .T. ) ;
#81 =( LENGTH_UNIT ( ) NAMED_UNIT ( * ) SI_UNIT ( .MILLI., .METRE. ) );
#82 = AXIS2_PLACEMENT_3D ( 'NONE', #51, #178, #119 ) ;
#83 = DIRECTION ( 'NONE',  ( 1.000000000000000000, 0.0000000000000000000, 0.0000000000000000000 ) ) ;
#84 = ADVANCED_FACE ( 'NONE', ( #35 ), #18, .T. ) ;
#85 = APPLICATION_CONTEXT ( 'configuration controlled 3d designs of mechanical parts and assemblies' ) ;
#86 = CC_DESIGN_SECURITY_CLASSIFICATION ( #182, ( #133 ) ) ;
#87 = ORIENTED_EDGE ( 'NONE', *, *, #13, .T. ) ;
#88 = DIRECTION ( 'NONE',  ( 0.0000000000000000000, 1.000000000000000000, 0.0000000000000000000 ) ) ;
#89 = APPROVAL_DATE_TIME ( #116, #134 ) ;
#90 = CARTESIAN_POINT ( 'NONE',  ( 5.241254125785342355E-15, -4.340147582636425084E-16, 1.501154844356687112 ) ) ;
#91 = EDGE_LOOP ( 'NONE', ( #203 ) ) ;
#92 = DIRECTION ( 'NONE',  ( 3.491481338843133355E-15, -1.224646799147353207E-16, 1.000000000000000000 ) ) ;
#93 = CC_DESIGN_APPROVAL ( #213, ( #133 ) ) ;
#94 = EDGE_LOOP ( 'NONE', ( #239 ) ) ;
#95 = APPROVAL_STATUS ( 'not_yet_approved' ) ;
#96 = CARTESIAN_POINT ( 'NONE',  ( 8.030407079339206717E-15, 0.0000000000000000000, 2.299999999999999822 ) ) ;
#97 = LOCAL_TIME ( 7, 51, 40.00000000000000000, #103 ) ;
#98 = CC_DESIGN_PERSON_AND_ORGANIZATION_ASSIGNMENT ( #160, #1, ( #182 ) ) ;
#99 = CIRCLE ( 'NONE', #12, 0.7500000000000000000 ) ;
#100 = CARTESIAN_POINT ( 'NONE',  ( 1.316288464743861212E-13, -4.616918432785521081E-15, 37.69999999999999574 ) ) ;
#101 = PERSON_AND_ORGANIZATION ( #31, #58 ) ;
#102 = FACE_OUTER_BOUND ( 'NONE', #22, .T. ) ;
#103 = COORDINATED_UNIVERSAL_TIME_OFFSET ( 1, 0, .AHEAD. ) ;
#104 = PLANE ( 'NONE',  #54 ) ;
#105 = AXIS2_PLACEMENT_3D ( 'NONE', #96, #11, #206 ) ;
#106 = COORDINATED_UNIVERSAL_TIME_OFFSET ( 1, 0, .AHEAD. ) ;
#107 = CARTESIAN_POINT ( 'NONE',  ( 0.0000000000000000000, 0.0000000000000000000, 0.0000000000000000000 ) ) ;
#108 = EDGE_LOOP ( 'NONE', ( #199 ) ) ;
#109 = PERSON_AND_ORGANIZATION ( #31, #58 ) ;
#110 = CARTESIAN_POINT ( 'NONE',  ( 1.983837810246228641E-14, -6.958366345301815590E-16, 5.681937314617162116 ) ) ;
#111 = AXIS2_PLACEMENT_3D ( 'NONE', #126, #73, #88 ) ;
#112 = AXIS2_PLACEMENT_3D ( 'NONE', #158, #65, #32 ) ;
#113 = PRODUCT_RELATED_PRODUCT_CATEGORY ( 'detail', '', ( #212 ) ) ;
#114 = CC_DESIGN_DATE_AND_TIME_ASSIGNMENT ( #74, #197, ( #181 ) ) ;
#115 = DIRECTION ( 'NONE',  ( -4.275831445896958607E-31, -1.000000000000000000, -1.224646799147353207E-16 ) ) ;
#116 = DATE_AND_TIME ( #15, #50 ) ;
#117 = CARTESIAN_POINT ( 'NONE',  ( -8.551662891793918527E-33, 2.999519565323715729E-34, -2.449293598294706769E-18 ) ) ;
#118 = ADVANCED_FACE ( 'NONE', ( #214 ), #37, .F. ) ;
#119 = DIRECTION ( 'NONE',  ( -4.275831445896958607E-31, -1.000000000000000000, -1.224646799147353207E-16 ) ) ;
#120 = EDGE_LOOP ( 'NONE', ( #47 ) ) ;
#121 = DIRECTION ( 'NONE',  ( -3.491481338843133355E-15, 1.224646799147353207E-16, -1.000000000000000000 ) ) ;
#122 = EDGE_LOOP ( 'NONE', ( #153 ) ) ;
#123 = APPROVAL_PERSON_ORGANIZATION ( #39, #213, #157 ) ;
#124 = UNCERTAINTY_MEASURE_WITH_UNIT (LENGTH_MEASURE( 1.000000000000000082E-05 ), #81, 'distance_accuracy_value', 'NONE');
#125 = SHAPE_DEFINITION_REPRESENTATION ( #45, #149 ) ;
#126 = CARTESIAN_POINT ( 'NONE',  ( 8.030407079339206717E-15, -2.816687638038912056E-16, 2.299999999999999822 ) ) ;
#127 = CARTESIAN_POINT ( 'NONE',  ( 5.241254125785342355E-15, 0.7499999999999997780, 1.501154844356687335 ) ) ;
#128 = CARTESIAN_POINT ( 'NONE',  ( 8.030407079339206717E-15, 0.7500000000000006661, 2.299999999999999822 ) ) ;
#129 = AXIS2_PLACEMENT_3D ( 'NONE', #79, #170, #83 ) ;
#130 = CARTESIAN_POINT ( 'NONE',  ( 4.275831445896955842E-33, 0.05000000000000000278, 1.224646799147352614E-18 ) ) ;
#131 = CIRCLE ( 'NONE', #64, 1.500000000000003331 ) ;
#132 = APPROVAL_PERSON_ORGANIZATION ( #189, #194, #26 ) ;
#133 = PRODUCT_DEFINITION_FORMATION_WITH_SPECIFIED_SOURCE ( 'ANY', '', #212, .NOT_KNOWN. ) ;
#134 = APPROVAL ( #183, 'UNSPECIFIED' ) ;
#135 = DIRECTION ( 'NONE',  ( -3.491481338843133355E-15, 1.224646799147353207E-16, -1.000000000000000000 ) ) ;
#136 = CARTESIAN_POINT ( 'NONE',  ( 5.241254125785342355E-15, -1.838384475165960349E-16, 1.501154844356687335 ) ) ;
#137 = EDGE_CURVE ( 'NONE', #168, #168, #99, .T. ) ;
#138 = DIRECTION ( 'NONE',  ( -3.491481338843133355E-15, 1.224646799147353207E-16, -1.000000000000000000 ) ) ;
#139 = ORIENTED_EDGE ( 'NONE', *, *, #233, .F. ) ;
#140 = DATE_AND_TIME ( #17, #175 ) ;
#141 = CARTESIAN_POINT ( 'NONE',  ( 0.0000000000000000000, 0.0000000000000000000, 0.0000000000000000000 ) ) ;
#142 = EDGE_LOOP ( 'NONE', ( #52 ) ) ;
#143 = MANIFOLD_SOLID_BREP ( 'Corps-Déplacer/Copier1[2]', #151 ) ;
#144 = CARTESIAN_POINT ( 'NONE',  ( 5.241254125785342355E-15, -1.838384475165960349E-16, 1.501154844356687335 ) ) ;
#145 = CARTESIAN_POINT ( 'NONE',  ( 5.241254125785342355E-15, 0.7499999999999997780, 1.501154844356687335 ) ) ;
#146 = COORDINATED_UNIVERSAL_TIME_OFFSET ( 1, 0, .AHEAD. ) ;
#147 = CIRCLE ( 'NONE', #44, 0.7500000000000000000 ) ;
#148 = DIRECTION ( 'NONE',  ( 0.0000000000000000000, 1.000000000000000000, 0.0000000000000000000 ) ) ;
#149 = ADVANCED_BREP_SHAPE_REPRESENTATION ( '976261', ( #62, #143, #129 ), #241 ) ;
#150 = CC_DESIGN_PERSON_AND_ORGANIZATION_ASSIGNMENT ( #109, #221, ( #133 ) ) ;
#151 = CLOSED_SHELL ( 'NONE', ( #118, #227, #84 ) ) ;
#152 = DIRECTION ( 'NONE',  ( 3.491481338843133355E-15, -1.224646799147353207E-16, 1.000000000000000000 ) ) ;
#153 = ORIENTED_EDGE ( 'NONE', *, *, #233, .T. ) ;
#154 = FACE_OUTER_BOUND ( 'NONE', #94, .T. ) ;
#155 = EDGE_CURVE ( 'NONE', #57, #57, #131, .T. ) ;
#156 = EDGE_CURVE ( 'NONE', #226, #226, #147, .T. ) ;
#157 = APPROVAL_ROLE ( '' ) ;
#158 = CARTESIAN_POINT ( 'NONE',  ( 1.326762908760390423E-13, -4.653657836759941941E-15, 38.00000000000000000 ) ) ;
#159 = ORIENTED_EDGE ( 'NONE', *, *, #13, .F. ) ;
#160 = PERSON_AND_ORGANIZATION ( #31, #58 ) ;
#161 = DIRECTION ( 'NONE',  ( -4.275831445896958607E-31, -1.000000000000000000, -1.224646799147353207E-16 ) ) ;
#162 = EDGE_LOOP ( 'NONE', ( #87 ) ) ;
#163 = EDGE_CURVE ( 'NONE', #171, #171, #235, .T. ) ;
#164 = PERSON_AND_ORGANIZATION_ROLE ( 'creator' ) ;
#165 = VERTEX_POINT ( 'NONE', #208 ) ;
#166 = EDGE_LOOP ( 'NONE', ( #220 ) ) ;
#167 = APPROVAL_STATUS ( 'not_yet_approved' ) ;
#168 = VERTEX_POINT ( 'NONE', #145 ) ;
#169 = APPLICATION_PROTOCOL_DEFINITION ( 'international standard', 'config_control_design', 1994, #85 ) ;
#170 = DIRECTION ( 'NONE',  ( 0.0000000000000000000, 0.0000000000000000000, 1.000000000000000000 ) ) ;
#171 = VERTEX_POINT ( 'NONE', #43 ) ;
#172 = CONICAL_SURFACE ( 'NONE', #112, 1.200000000000003286, 0.7853981633974453924 ) ;
#173 = CIRCLE ( 'NONE', #67, 0.05000000000000000278 ) ;
#174 = AXIS2_PLACEMENT_3D ( 'NONE', #107, #135, #24 ) ;
#175 = LOCAL_TIME ( 7, 51, 40.00000000000000000, #106 ) ;
#176 = CC_DESIGN_PERSON_AND_ORGANIZATION_ASSIGNMENT ( #228, #188, ( #212 ) ) ;
#177 = DIRECTION ( 'NONE',  ( -3.491481338843133355E-15, 1.224646799147353207E-16, -1.000000000000000000 ) ) ;
#178 = DIRECTION ( 'NONE',  ( 3.491481338843133355E-15, -1.224646799147353207E-16, 1.000000000000000000 ) ) ;
#179 = CIRCLE ( 'NONE', #111, 0.7500000000000009992 ) ;
#180 = DIRECTION ( 'NONE',  ( 3.491481338843133355E-15, -1.224646799147353207E-16, 1.000000000000000000 ) ) ;
#181 = PRODUCT_DEFINITION ( 'UNKNOWN', '', #133, #19 ) ;
#182 = SECURITY_CLASSIFICATION ( '', '', #204 ) ;
#183 = APPROVAL_STATUS ( 'not_yet_approved' ) ;
#184 = FACE_OUTER_BOUND ( 'NONE', #142, .T. ) ;
#185 = EDGE_LOOP ( 'NONE', ( #68 ) ) ;
#186 = APPROVAL_DATE_TIME ( #140, #213 ) ;
#187 = DIRECTION ( 'NONE',  ( 4.275831445896958607E-31, 1.000000000000000000, 1.224646799147353207E-16 ) ) ;
#188 = PERSON_AND_ORGANIZATION_ROLE ( 'design_owner' ) ;
#189 = PERSON_AND_ORGANIZATION ( #31, #58 ) ;
#190 = CC_DESIGN_APPROVAL ( #134, ( #182 ) ) ;
#191 = AXIS2_PLACEMENT_3D ( 'NONE', #141, #75, #187 ) ;
#192 = CC_DESIGN_APPROVAL ( #194, ( #181 ) ) ;
#193 = CLOSED_SHELL ( 'NONE', ( #28, #33, #237, #61, #80, #236 ) ) ;
#194 = APPROVAL ( #95, 'UNSPECIFIED' ) ;
#195 = FACE_OUTER_BOUND ( 'NONE', #185, .T. ) ;
#196 = DIRECTION ( 'NONE',  ( 0.0000000000000000000, 1.000000000000000000, 0.0000000000000000000 ) ) ;
#197 = DATE_TIME_ROLE ( 'creation_date' ) ;
#198 = FACE_OUTER_BOUND ( 'NONE', #166, .T. ) ;
#199 = ORIENTED_EDGE ( 'NONE', *, *, #155, .F. ) ;
#200 = CIRCLE ( 'NONE', #63, 1.200000000000003286 ) ;
#201 = DATE_AND_TIME ( #77, #211 ) ;
#202 = DIRECTION ( 'NONE',  ( 4.275831445896958607E-31, 1.000000000000000000, 1.224646799147353207E-16 ) ) ;
#203 = ORIENTED_EDGE ( 'NONE', *, *, #156, .T. ) ;
#204 = SECURITY_CLASSIFICATION_LEVEL ( 'unclassified' ) ;
#205 = CYLINDRICAL_SURFACE ( 'NONE', #174, 1.500000000000000000 ) ;
#206 = DIRECTION ( 'NONE',  ( 4.355100981429076768E-31, 1.000000000000000000, 1.224646799147353207E-16 ) ) ;
#207 = CARTESIAN_POINT ( 'NONE',  ( 1.316288464743861212E-13, 1.499999999999998668, 37.69999999999999574 ) ) ;
#208 = CARTESIAN_POINT ( 'NONE',  ( 1.326762908760390423E-13, 1.199999999999998845, 38.00000000000000000 ) ) ;
#209 = EDGE_CURVE ( 'NONE', #78, #78, #179, .T. ) ;
#210 = AXIS2_PLACEMENT_3D ( 'NONE', #2, #121, #202 ) ;
#211 = LOCAL_TIME ( 7, 51, 40.00000000000000000, #23 ) ;
#212 = PRODUCT ( '976261', '976261', '', ( #41 ) ) ;
#213 = APPROVAL ( #167, 'UNSPECIFIED' ) ;
#214 = FACE_OUTER_BOUND ( 'NONE', #122, .T. ) ;
#215 = EDGE_LOOP ( 'NONE', ( #223 ) ) ;
#216 = CYLINDRICAL_SURFACE ( 'NONE', #191, 0.7500000000000004441 ) ;
#217 = EDGE_LOOP ( 'NONE', ( #49 ) ) ;
#218 = DATE_TIME_ROLE ( 'classification_date' ) ;
#219 = FACE_OUTER_BOUND ( 'NONE', #91, .T. ) ;
#220 = ORIENTED_EDGE ( 'NONE', *, *, #209, .T. ) ;
#221 = PERSON_AND_ORGANIZATION_ROLE ( 'design_supplier' ) ;
#222 = FACE_BOUND ( 'NONE', #71, .T. ) ;
#223 = ORIENTED_EDGE ( 'NONE', *, *, #137, .F. ) ;
#224 = PERSON_AND_ORGANIZATION ( #31, #58 ) ;
#225 = DIRECTION ( 'NONE',  ( 0.0000000000000000000, 1.000000000000000000, 0.0000000000000000000 ) ) ;
#226 = VERTEX_POINT ( 'NONE', #127 ) ;
#227 = ADVANCED_FACE ( 'NONE', ( #219, #222 ), #42, .T. ) ;
#228 = PERSON_AND_ORGANIZATION ( #31, #58 ) ;
#229 = AXIS2_PLACEMENT_3D ( 'NONE', #243, #92, #48 ) ;
#230 = CALENDAR_DATE ( 2021, 24, 11 ) ;
#231 = APPLICATION_CONTEXT ( 'configuration controlled 3d designs of mechanical parts and assemblies' ) ;
#232 = DIRECTION ( 'NONE',  ( -3.491481338843133355E-15, 1.224646799147353207E-16, -1.000000000000000000 ) ) ;
#233 = EDGE_CURVE ( 'NONE', #9, #9, #173, .T. ) ;
#234 = APPLICATION_PROTOCOL_DEFINITION ( 'international standard', 'config_control_design', 1994, #231 ) ;
#235 = CIRCLE ( 'NONE', #25, 1.499999999999996669 ) ;
#236 = ADVANCED_FACE ( 'NONE', ( #102 ), #16, .F. ) ;
#237 = ADVANCED_FACE ( 'NONE', ( #184, #21 ), #30, .F. ) ;
#238 = FACE_OUTER_BOUND ( 'NONE', #215, .T. ) ;
#239 = ORIENTED_EDGE ( 'NONE', *, *, #163, .F. ) ;
#240 = CARTESIAN_POINT ( 'NONE',  ( -1.710332578358783705E-32, 5.999039130647431458E-34, -4.898587196589413537E-18 ) ) ;
#241 =( GEOMETRIC_REPRESENTATION_CONTEXT ( 3 ) GLOBAL_UNCERTAINTY_ASSIGNED_CONTEXT ( ( #124 ) ) GLOBAL_UNIT_ASSIGNED_CONTEXT ( ( #81, #60, #8 ) ) REPRESENTATION_CONTEXT ( 'NONE', 'WORKASPACE' ) );
#242 = COORDINATED_UNIVERSAL_TIME_OFFSET ( 1, 0, .AHEAD. ) ;
#243 = CARTESIAN_POINT ( 'NONE',  ( 5.241254125785342355E-15, -4.340147582636425084E-16, 1.501154844356687112 ) ) ;
ENDSEC;
END-ISO-10303-21;
