ISO-10303-21;
HEADER;
FILE_DESCRIPTION (( 'STEP AP203' ),
    '1' );
FILE_NAME ('976260.step',
    '2021-11-24T06:51:40',
    ( '' ),
    ( '' ),
    'SwSTEP 2.0',
    'SolidWorks 2019',
    '' );
FILE_SCHEMA (( 'CONFIG_CONTROL_DESIGN' ));
ENDSEC;

DATA;
#1 = AXIS2_PLACEMENT_3D ( 'NONE', #196, #91, #15 ) ;
#2 = PRODUCT_RELATED_PRODUCT_CATEGORY ( 'detail', '', ( #225 ) ) ;
#3 = DIRECTION ( 'NONE',  ( -3.491481338843133355E-15, 1.224646799147353207E-16, -1.000000000000000000 ) ) ;
#4 = DIRECTION ( 'NONE',  ( 0.0000000000000000000, 1.000000000000000000, 0.0000000000000000000 ) ) ;
#5 = ORIENTED_EDGE ( 'NONE', *, *, #203, .F. ) ;
#6 = PRODUCT_DEFINITION_FORMATION_WITH_SPECIFIED_SOURCE ( 'ANY', '', #225, .NOT_KNOWN. ) ;
#7 = EDGE_LOOP ( 'NONE', ( #204 ) ) ;
#8 = FACE_OUTER_BOUND ( 'NONE', #7, .T. ) ;
#9 = ORIENTED_EDGE ( 'NONE', *, *, #75, .F. ) ;
#10 = FACE_OUTER_BOUND ( 'NONE', #212, .T. ) ;
#11 = CARTESIAN_POINT ( 'NONE',  ( -1.068957861474239268E-32, 3.749399456654642737E-34, -3.061616997868382016E-18 ) ) ;
#12 = ADVANCED_FACE ( 'NONE', ( #95 ), #46, .F. ) ;
#13 = VERTEX_POINT ( 'NONE', #239 ) ;
#14 = PERSON_AND_ORGANIZATION ( #161, #229 ) ;
#15 = DIRECTION ( 'NONE',  ( 1.000000000000000000, 0.0000000000000000000, 0.0000000000000000000 ) ) ;
#16 = CALENDAR_DATE ( 2021, 24, 11 ) ;
#17 = AXIS2_PLACEMENT_3D ( 'NONE', #111, #169, #228 ) ;
#18 = DATE_AND_TIME ( #121, #122 ) ;
#19 = CC_DESIGN_SECURITY_CLASSIFICATION ( #125, ( #6 ) ) ;
#20 = PRODUCT_DEFINITION_SHAPE ( 'NONE', 'NONE',  #27 ) ;
#21 = DIRECTION ( 'NONE',  ( -4.275831445896958607E-31, -1.000000000000000000, -1.224646799147353207E-16 ) ) ;
#22 = DIRECTION ( 'NONE',  ( -3.491481338843133355E-15, 1.224646799147353207E-16, -1.000000000000000000 ) ) ;
#23 = CARTESIAN_POINT ( 'NONE',  ( 1.983837810246228641E-14, -6.958366345301815590E-16, 5.681937314617162116 ) ) ;
#24 = ORIENTED_EDGE ( 'NONE', *, *, #90, .T. ) ;
#25 = ORIENTED_EDGE ( 'NONE', *, *, #162, .T. ) ;
#26 = DIRECTION ( 'NONE',  ( -3.491481338843133355E-15, 1.224646799147353207E-16, -1.000000000000000000 ) ) ;
#27 = PRODUCT_DEFINITION ( 'UNKNOWN', '', #6, #187 ) ;
#28 = PLANE ( 'NONE',  #80 ) ;
#29 = PERSON_AND_ORGANIZATION ( #161, #229 ) ;
#30 = LOCAL_TIME ( 7, 51, 40.00000000000000000, #32 ) ;
#31 = APPROVAL_ROLE ( '' ) ;
#32 = COORDINATED_UNIVERSAL_TIME_OFFSET ( 1, 0, .AHEAD. ) ;
#33 = CALENDAR_DATE ( 2021, 24, 11 ) ;
#34 = APPLICATION_CONTEXT ( 'configuration controlled 3d designs of mechanical parts and assemblies' ) ;
#35 = AXIS2_PLACEMENT_3D ( 'NONE', #227, #22, #79 ) ;
#36 = ADVANCED_FACE ( 'NONE', ( #62, #132 ), #173, .T. ) ;
#37 = AXIS2_PLACEMENT_3D ( 'NONE', #206, #110, #185 ) ;
#38 = AXIS2_PLACEMENT_3D ( 'NONE', #207, #182, #21 ) ;
#39 = PLANE ( 'NONE',  #38 ) ;
#40 = EDGE_LOOP ( 'NONE', ( #211 ) ) ;
#41 = ORIENTED_EDGE ( 'NONE', *, *, #90, .F. ) ;
#42 = ORIENTED_EDGE ( 'NONE', *, *, #237, .F. ) ;
#43 = EDGE_LOOP ( 'NONE', ( #5 ) ) ;
#44 = ORIENTED_EDGE ( 'NONE', *, *, #224, .F. ) ;
#45 = CARTESIAN_POINT ( 'NONE',  ( 8.030407079339206717E-15, 0.0000000000000000000, 2.299999999999999822 ) ) ;
#46 = PLANE ( 'NONE',  #200 ) ;
#47 = CC_DESIGN_PERSON_AND_ORGANIZATION_ASSIGNMENT ( #71, #238, ( #225 ) ) ;
#48 = CARTESIAN_POINT ( 'NONE',  ( 8.030407079339206717E-15, 0.7500000000000006661, 2.299999999999999822 ) ) ;
#49 = CARTESIAN_POINT ( 'NONE',  ( 1.316288464743861212E-13, -4.616918432785521081E-15, 37.69999999999999574 ) ) ;
#50 = CALENDAR_DATE ( 2021, 24, 11 ) ;
#51 = APPROVAL_DATE_TIME ( #88, #183 ) ;
#52 = DIRECTION ( 'NONE',  ( 3.491481338843133355E-15, -1.224646799147353207E-16, 1.000000000000000000 ) ) ;
#53 = APPROVAL_STATUS ( 'not_yet_approved' ) ;
#54 = APPLICATION_PROTOCOL_DEFINITION ( 'international standard', 'config_control_design', 1994, #142 ) ;
#55 = ADVANCED_FACE ( 'NONE', ( #144 ), #39, .F. ) ;
#56 = APPROVAL ( #70, 'UNSPECIFIED' ) ;
#57 = TOROIDAL_SURFACE ( 'NONE', #164, 8.750000000000000000, 8.000000000000000000 ) ;
#58 = AXIS2_PLACEMENT_3D ( 'NONE', #165, #3, #64 ) ;
#59 = DIRECTION ( 'NONE',  ( -3.491481338843133355E-15, 1.224646799147353207E-16, -1.000000000000000000 ) ) ;
#60 = AXIS2_PLACEMENT_3D ( 'NONE', #118, #52, #156 ) ;
#61 = EDGE_LOOP ( 'NONE', ( #231 ) ) ;
#62 = FACE_OUTER_BOUND ( 'NONE', #232, .T. ) ;
#63 = ORIENTED_EDGE ( 'NONE', *, *, #162, .F. ) ;
#64 = DIRECTION ( 'NONE',  ( 0.0000000000000000000, 1.000000000000000000, 0.0000000000000000000 ) ) ;
#65 = VERTEX_POINT ( 'NONE', #220 ) ;
#66 = APPROVAL_PERSON_ORGANIZATION ( #86, #56, #222 ) ;
#67 = CARTESIAN_POINT ( 'NONE',  ( 5.316129184725133265E-15, 3.217939358824155512E-32, 1.522599913561782925 ) ) ;
#68 = DATE_AND_TIME ( #223, #76 ) ;
#69 = DIRECTION ( 'NONE',  ( 0.0000000000000000000, 1.000000000000000000, 0.0000000000000000000 ) ) ;
#70 = APPROVAL_STATUS ( 'not_yet_approved' ) ;
#71 = PERSON_AND_ORGANIZATION ( #161, #229 ) ;
#72 = CIRCLE ( 'NONE', #103, 1.499999999999996669 ) ;
#73 = APPROVAL_DATE_TIME ( #137, #180 ) ;
#74 = APPROVAL_STATUS ( 'not_yet_approved' ) ;
#75 = EDGE_CURVE ( 'NONE', #213, #213, #159, .T. ) ;
#76 = LOCAL_TIME ( 7, 51, 40.00000000000000000, #123 ) ;
#77 = ADVANCED_FACE ( 'NONE', ( #97, #230 ), #184, .T. ) ;
#78 = DIRECTION ( 'NONE',  ( -4.275831445896958607E-31, -1.000000000000000000, -1.224646799147353207E-16 ) ) ;
#79 = DIRECTION ( 'NONE',  ( 4.275831445896959482E-31, 1.000000000000000000, 1.224646799147353207E-16 ) ) ;
#80 = AXIS2_PLACEMENT_3D ( 'NONE', #67, #171, #234 ) ;
#81 = DIRECTION ( 'NONE',  ( -3.491481338843133355E-15, 1.224646799147353207E-16, -1.000000000000000000 ) ) ;
#82 = FACE_OUTER_BOUND ( 'NONE', #109, .T. ) ;
#83 = DIRECTION ( 'NONE',  ( 0.0000000000000000000, 1.000000000000000000, 0.0000000000000000000 ) ) ;
#84 = FACE_OUTER_BOUND ( 'NONE', #149, .T. ) ;
#85 =( LENGTH_UNIT ( ) NAMED_UNIT ( * ) SI_UNIT ( .MILLI., .METRE. ) );
#86 = PERSON_AND_ORGANIZATION ( #161, #229 ) ;
#87 = PERSON_AND_ORGANIZATION_ROLE ( 'classification_officer' ) ;
#88 = DATE_AND_TIME ( #16, #179 ) ;
#89 = AXIS2_PLACEMENT_3D ( 'NONE', #154, #131, #83 ) ;
#90 = EDGE_CURVE ( 'NONE', #116, #116, #214, .T. ) ;
#91 = DIRECTION ( 'NONE',  ( 0.0000000000000000000, 0.0000000000000000000, 1.000000000000000000 ) ) ;
#92 =( GEOMETRIC_REPRESENTATION_CONTEXT ( 3 ) GLOBAL_UNCERTAINTY_ASSIGNED_CONTEXT ( ( #202 ) ) GLOBAL_UNIT_ASSIGNED_CONTEXT ( ( #85, #218, #193 ) ) REPRESENTATION_CONTEXT ( 'NONE', 'WORKASPACE' ) );
#93 = ADVANCED_FACE ( 'NONE', ( #127 ), #145, .F. ) ;
#94 = CONICAL_SURFACE ( 'NONE', #60, 0.04000000000000000083, 0.4363323129985833271 ) ;
#95 = FACE_OUTER_BOUND ( 'NONE', #115, .T. ) ;
#96 = CARTESIAN_POINT ( 'NONE',  ( 5.316129184725133265E-15, -1.864647110525474414E-16, 1.522599913561782925 ) ) ;
#97 = FACE_OUTER_BOUND ( 'NONE', #150, .T. ) ;
#98 = CC_DESIGN_DATE_AND_TIME_ASSIGNMENT ( #68, #178, ( #125 ) ) ;
#99 = AXIS2_PLACEMENT_3D ( 'NONE', #201, #81, #166 ) ;
#100 = DIRECTION ( 'NONE',  ( -3.491481338843133355E-15, 1.224646799147353207E-16, -1.000000000000000000 ) ) ;
#101 = CARTESIAN_POINT ( 'NONE',  ( 5.316129184725133265E-15, 0.7499999999999997780, 1.522599913561782925 ) ) ;
#102 = PERSON_AND_ORGANIZATION_ROLE ( 'creator' ) ;
#103 = AXIS2_PLACEMENT_3D ( 'NONE', #23, #167, #130 ) ;
#104 = APPROVAL_ROLE ( '' ) ;
#105 = COORDINATED_UNIVERSAL_TIME_OFFSET ( 1, 0, .AHEAD. ) ;
#106 = AXIS2_PLACEMENT_3D ( 'NONE', #49, #170, #133 ) ;
#107 = ADVANCED_FACE ( 'NONE', ( #8, #82 ), #129, .T. ) ;
#108 = CARTESIAN_POINT ( 'NONE',  ( 5.316129184725133265E-15, 3.217939358824155512E-32, 1.522599913561782925 ) ) ;
#109 = EDGE_LOOP ( 'NONE', ( #41 ) ) ;
#110 = DIRECTION ( 'NONE',  ( -3.491481338843133355E-15, 1.224646799147353207E-16, -1.000000000000000000 ) ) ;
#111 = CARTESIAN_POINT ( 'NONE',  ( 1.326762908760390423E-13, 8.998558695971103225E-33, 38.00000000000000000 ) ) ;
#112 = ORIENTED_EDGE ( 'NONE', *, *, #152, .F. ) ;
#113 = CARTESIAN_POINT ( 'NONE',  ( 1.316288464743861212E-13, 1.499999999999998668, 37.69999999999999574 ) ) ;
#114 = AXIS2_PLACEMENT_3D ( 'NONE', #11, #100, #188 ) ;
#115 = EDGE_LOOP ( 'NONE', ( #24 ) ) ;
#116 = VERTEX_POINT ( 'NONE', #101 ) ;
#117 = CC_DESIGN_PERSON_AND_ORGANIZATION_ASSIGNMENT ( #155, #119, ( #27 ) ) ;
#118 = CARTESIAN_POINT ( 'NONE',  ( -1.068957861474239268E-32, 3.749399456654642737E-34, -3.061616997868382016E-18 ) ) ;
#119 = PERSON_AND_ORGANIZATION_ROLE ( 'creator' ) ;
#120 = FACE_BOUND ( 'NONE', #168, .T. ) ;
#121 = CALENDAR_DATE ( 2021, 24, 11 ) ;
#122 = LOCAL_TIME ( 7, 51, 40.00000000000000000, #219 ) ;
#123 = COORDINATED_UNIVERSAL_TIME_OFFSET ( 1, 0, .AHEAD. ) ;
#124 = ADVANCED_BREP_SHAPE_REPRESENTATION ( '976260', ( #216, #217, #1 ), #92 ) ;
#125 = SECURITY_CLASSIFICATION ( '', '', #176 ) ;
#126 = CC_DESIGN_PERSON_AND_ORGANIZATION_ASSIGNMENT ( #177, #102, ( #6 ) ) ;
#127 = FACE_OUTER_BOUND ( 'NONE', #148, .T. ) ;
#128 = LOCAL_TIME ( 7, 51, 40.00000000000000000, #197 ) ;
#129 = CYLINDRICAL_SURFACE ( 'NONE', #37, 0.7500000000000004441 ) ;
#130 = DIRECTION ( 'NONE',  ( 0.0000000000000000000, 1.000000000000000000, 0.0000000000000000000 ) ) ;
#131 = DIRECTION ( 'NONE',  ( -3.491481338843133355E-15, 1.224646799147353207E-16, -1.000000000000000000 ) ) ;
#132 = FACE_BOUND ( 'NONE', #40, .T. ) ;
#133 = DIRECTION ( 'NONE',  ( 0.0000000000000000000, 1.000000000000000000, 0.0000000000000000000 ) ) ;
#134 = APPROVAL_PERSON_ORGANIZATION ( #14, #183, #104 ) ;
#135 = CC_DESIGN_DATE_AND_TIME_ASSIGNMENT ( #138, #240, ( #27 ) ) ;
#136 = CARTESIAN_POINT ( 'NONE',  ( 1.326762908760390423E-13, 1.199999999999998845, 38.00000000000000000 ) ) ;
#137 = DATE_AND_TIME ( #50, #128 ) ;
#138 = DATE_AND_TIME ( #33, #30 ) ;
#139 = CIRCLE ( 'NONE', #89, 1.200000000000003286 ) ;
#140 = PERSON_AND_ORGANIZATION ( #161, #229 ) ;
#141 = APPLICATION_PROTOCOL_DEFINITION ( 'international standard', 'config_control_design', 1994, #34 ) ;
#142 = APPLICATION_CONTEXT ( 'configuration controlled 3d designs of mechanical parts and assemblies' ) ;
#143 = AXIS2_PLACEMENT_3D ( 'NONE', #215, #26, #69 ) ;
#144 = FACE_OUTER_BOUND ( 'NONE', #209, .T. ) ;
#145 = PLANE ( 'NONE',  #17 ) ;
#146 = CC_DESIGN_APPROVAL ( #180, ( #27 ) ) ;
#147 = EDGE_LOOP ( 'NONE', ( #186 ) ) ;
#148 = EDGE_LOOP ( 'NONE', ( #42 ) ) ;
#149 = EDGE_LOOP ( 'NONE', ( #9 ) ) ;
#150 = EDGE_LOOP ( 'NONE', ( #112 ) ) ;
#151 = FACE_OUTER_BOUND ( 'NONE', #43, .T. ) ;
#152 = EDGE_CURVE ( 'NONE', #13, #13, #72, .T. ) ;
#153 = CC_DESIGN_PERSON_AND_ORGANIZATION_ASSIGNMENT ( #174, #236, ( #6 ) ) ;
#154 = CARTESIAN_POINT ( 'NONE',  ( 1.326762908760390423E-13, -4.653657836759941941E-15, 38.00000000000000000 ) ) ;
#155 = PERSON_AND_ORGANIZATION ( #161, #229 ) ;
#156 = DIRECTION ( 'NONE',  ( -4.275831445896958607E-31, -1.000000000000000000, -1.224646799147353454E-16 ) ) ;
#157 = DIRECTION ( 'NONE',  ( -3.491481338843133355E-15, 1.224646799147353207E-16, -1.000000000000000000 ) ) ;
#158 = SHAPE_DEFINITION_REPRESENTATION ( #20, #124 ) ;
#159 = CIRCLE ( 'NONE', #58, 0.7500000000000009992 ) ;
#160 = APPROVAL_DATE_TIME ( #18, #56 ) ;
#161 = PERSON ( 'UNSPECIFIED', 'UNSPECIFIED', 'UNSPECIFIED', ('UNSPECIFIED'), ('UNSPECIFIED'), ('UNSPECIFIED') ) ;
#162 = EDGE_CURVE ( 'NONE', #65, #65, #241, .T. ) ;
#163 = CC_DESIGN_APPROVAL ( #183, ( #6 ) ) ;
#164 = AXIS2_PLACEMENT_3D ( 'NONE', #45, #157, #191 ) ;
#165 = CARTESIAN_POINT ( 'NONE',  ( 8.030407079339206717E-15, -2.816687638038912056E-16, 2.299999999999999822 ) ) ;
#166 = DIRECTION ( 'NONE',  ( 0.0000000000000000000, 1.000000000000000000, 0.0000000000000000000 ) ) ;
#167 = DIRECTION ( 'NONE',  ( -3.491481338843133355E-15, 1.224646799147353207E-16, -1.000000000000000000 ) ) ;
#168 = EDGE_LOOP ( 'NONE', ( #63 ) ) ;
#169 = DIRECTION ( 'NONE',  ( -3.491481338843133355E-15, 1.224646799147353207E-16, -1.000000000000000000 ) ) ;
#170 = DIRECTION ( 'NONE',  ( -3.491481338843133355E-15, 1.224646799147353207E-16, -1.000000000000000000 ) ) ;
#171 = DIRECTION ( 'NONE',  ( 3.491481338843133355E-15, -1.224646799147353207E-16, 1.000000000000000000 ) ) ;
#172 = CARTESIAN_POINT ( 'NONE',  ( 5.316129184725133265E-15, 0.7499999999999997780, 1.522599913561782925 ) ) ;
#173 = CONICAL_SURFACE ( 'NONE', #99, 1.200000000000003286, 0.7853981633974453924 ) ;
#174 = PERSON_AND_ORGANIZATION ( #161, #229 ) ;
#175 = VERTEX_POINT ( 'NONE', #172 ) ;
#176 = SECURITY_CLASSIFICATION_LEVEL ( 'unclassified' ) ;
#177 = PERSON_AND_ORGANIZATION ( #161, #229 ) ;
#178 = DATE_TIME_ROLE ( 'classification_date' ) ;
#179 = LOCAL_TIME ( 7, 51, 40.00000000000000000, #105 ) ;
#180 = APPROVAL ( #53, 'UNSPECIFIED' ) ;
#181 = CLOSED_SHELL ( 'NONE', ( #12, #107, #226, #77, #36, #93 ) ) ;
#182 = DIRECTION ( 'NONE',  ( 3.491481338843133355E-15, -1.224646799147353207E-16, 1.000000000000000000 ) ) ;
#183 = APPROVAL ( #74, 'UNSPECIFIED' ) ;
#184 = CYLINDRICAL_SURFACE ( 'NONE', #35, 1.500000000000000000 ) ;
#185 = DIRECTION ( 'NONE',  ( 4.275831445896958607E-31, 1.000000000000000000, 1.224646799147353207E-16 ) ) ;
#186 = ORIENTED_EDGE ( 'NONE', *, *, #203, .T. ) ;
#187 = DESIGN_CONTEXT ( 'detailed design', #34, 'design' ) ;
#188 = DIRECTION ( 'NONE',  ( 4.275831445896958607E-31, 1.000000000000000000, 1.224646799147353207E-16 ) ) ;
#189 = CC_DESIGN_APPROVAL ( #56, ( #125 ) ) ;
#190 = DIRECTION ( 'NONE',  ( 3.491481338843133355E-15, -1.224646799147353207E-16, 1.000000000000000000 ) ) ;
#191 = DIRECTION ( 'NONE',  ( 4.355100981429076768E-31, 1.000000000000000000, 1.224646799147353207E-16 ) ) ;
#192 = FACE_OUTER_BOUND ( 'NONE', #147, .T. ) ;
#193 =( NAMED_UNIT ( * ) SI_UNIT ( $, .STERADIAN. ) SOLID_ANGLE_UNIT ( ) );
#194 = CIRCLE ( 'NONE', #106, 1.500000000000003331 ) ;
#195 = MECHANICAL_CONTEXT ( 'NONE', #142, 'mechanical' ) ;
#196 = CARTESIAN_POINT ( 'NONE',  ( 0.0000000000000000000, 0.0000000000000000000, 0.0000000000000000000 ) ) ;
#197 = COORDINATED_UNIVERSAL_TIME_OFFSET ( 1, 0, .AHEAD. ) ;
#198 = ADVANCED_FACE ( 'NONE', ( #192, #120 ), #94, .T. ) ;
#199 = CIRCLE ( 'NONE', #143, 0.7500000000000000000 ) ;
#200 = AXIS2_PLACEMENT_3D ( 'NONE', #108, #190, #78 ) ;
#201 = CARTESIAN_POINT ( 'NONE',  ( 1.326762908760390423E-13, -4.653657836759941941E-15, 38.00000000000000000 ) ) ;
#202 = UNCERTAINTY_MEASURE_WITH_UNIT (LENGTH_MEASURE( 1.000000000000000082E-05 ), #85, 'distance_accuracy_value', 'NONE');
#203 = EDGE_CURVE ( 'NONE', #175, #175, #199, .T. ) ;
#204 = ORIENTED_EDGE ( 'NONE', *, *, #75, .T. ) ;
#205 = AXIS2_PLACEMENT_3D ( 'NONE', #96, #59, #4 ) ;
#206 = CARTESIAN_POINT ( 'NONE',  ( 0.0000000000000000000, 0.0000000000000000000, 0.0000000000000000000 ) ) ;
#207 = CARTESIAN_POINT ( 'NONE',  ( -5.344789307371196342E-33, 1.874699728327321368E-34, -1.530808498934191008E-18 ) ) ;
#208 = CC_DESIGN_PERSON_AND_ORGANIZATION_ASSIGNMENT ( #140, #87, ( #125 ) ) ;
#209 = EDGE_LOOP ( 'NONE', ( #25 ) ) ;
#210 = VERTEX_POINT ( 'NONE', #113 ) ;
#211 = ORIENTED_EDGE ( 'NONE', *, *, #237, .T. ) ;
#212 = EDGE_LOOP ( 'NONE', ( #233 ) ) ;
#213 = VERTEX_POINT ( 'NONE', #48 ) ;
#214 = CIRCLE ( 'NONE', #205, 0.7500000000000000000 ) ;
#215 = CARTESIAN_POINT ( 'NONE',  ( 5.316129184725133265E-15, -1.864647110525474414E-16, 1.522599913561782925 ) ) ;
#216 = MANIFOLD_SOLID_BREP ( 'Corps-Déplacer/Copier1[1]', #181 ) ;
#217 = MANIFOLD_SOLID_BREP ( 'Corps-Déplacer/Copier1[2]', #242 ) ;
#218 =( NAMED_UNIT ( * ) PLANE_ANGLE_UNIT ( ) SI_UNIT ( $, .RADIAN. ) );
#219 = COORDINATED_UNIVERSAL_TIME_OFFSET ( 1, 0, .AHEAD. ) ;
#220 = CARTESIAN_POINT ( 'NONE',  ( 6.413747168845441632E-33, 0.04000000000000000083, 1.836970198721030751E-18 ) ) ;
#221 = APPROVAL_PERSON_ORGANIZATION ( #29, #180, #31 ) ;
#222 = APPROVAL_ROLE ( '' ) ;
#223 = CALENDAR_DATE ( 2021, 24, 11 ) ;
#224 = EDGE_CURVE ( 'NONE', #210, #210, #194, .T. ) ;
#225 = PRODUCT ( '976260', '976260', '', ( #195 ) ) ;
#226 = ADVANCED_FACE ( 'NONE', ( #10, #84 ), #57, .F. ) ;
#227 = CARTESIAN_POINT ( 'NONE',  ( 0.0000000000000000000, 0.0000000000000000000, 0.0000000000000000000 ) ) ;
#228 = DIRECTION ( 'NONE',  ( 4.275831445896958607E-31, 1.000000000000000000, 1.224646799147353207E-16 ) ) ;
#229 = ORGANIZATION ( 'UNSPECIFIED', 'UNSPECIFIED', '' ) ;
#230 = FACE_OUTER_BOUND ( 'NONE', #61, .T. ) ;
#231 = ORIENTED_EDGE ( 'NONE', *, *, #224, .T. ) ;
#232 = EDGE_LOOP ( 'NONE', ( #44 ) ) ;
#233 = ORIENTED_EDGE ( 'NONE', *, *, #152, .T. ) ;
#234 = DIRECTION ( 'NONE',  ( -4.275831445896958607E-31, -1.000000000000000000, -1.224646799147353207E-16 ) ) ;
#235 = VERTEX_POINT ( 'NONE', #136 ) ;
#236 = PERSON_AND_ORGANIZATION_ROLE ( 'design_supplier' ) ;
#237 = EDGE_CURVE ( 'NONE', #235, #235, #139, .T. ) ;
#238 = PERSON_AND_ORGANIZATION_ROLE ( 'design_owner' ) ;
#239 = CARTESIAN_POINT ( 'NONE',  ( 1.983837810246228641E-14, 1.499999999999996225, 5.681937314617162116 ) ) ;
#240 = DATE_TIME_ROLE ( 'creation_date' ) ;
#241 = CIRCLE ( 'NONE', #114, 0.04000000000000000083 ) ;
#242 = CLOSED_SHELL ( 'NONE', ( #55, #198, #243 ) ) ;
#243 = ADVANCED_FACE ( 'NONE', ( #151 ), #28, .T. ) ;
ENDSEC;
END-ISO-10303-21;
