ISO-10303-21;
HEADER;
FILE_DESCRIPTION (( 'STEP AP203' ),
    '1' );
FILE_NAME ('976259.step',
    '2021-12-17T10:35:12',
    ( '' ),
    ( '' ),
    'SwSTEP 2.0',
    'SolidWorks 2019',
    '' );
FILE_SCHEMA (( 'CONFIG_CONTROL_DESIGN' ));
ENDSEC;

DATA;
#1 = CARTESIAN_POINT ( 'NONE',  ( 3.479771361045492082E-14, -1.220539491836720822E-15, 9.966461290606465795 ) ) ;
#2 = ADVANCED_FACE ( 'NONE', ( #158 ), #180, .F. ) ;
#3 = DIRECTION ( 'NONE',  ( -3.491481338843133355E-15, 1.224646799147353207E-16, -1.000000000000000000 ) ) ;
#4 = FACE_OUTER_BOUND ( 'NONE', #206, .T. ) ;
#5 = CIRCLE ( 'NONE', #165, 1.008000000000000007 ) ;
#6 = DIRECTION ( 'NONE',  ( 3.491481338843133355E-15, -1.224646799147353207E-16, 1.000000000000000000 ) ) ;
#7 = DIRECTION ( 'NONE',  ( -3.821289572196900857E-31, -1.000000000000000000, -1.075597393338795298E-16 ) ) ;
#8 = APPROVAL_PERSON_ORGANIZATION ( #267, #117, #193 ) ;
#9 = DIRECTION ( 'NONE',  ( 4.275831445896959482E-31, 1.000000000000000000, 1.224646799147353454E-16 ) ) ;
#10 = EDGE_CURVE ( 'NONE', #54, #54, #83, .T. ) ;
#11 = CARTESIAN_POINT ( 'NONE',  ( 2.793185071074506684E-14, -9.797174393178825657E-16, 8.000000000000000000 ) ) ;
#12 = PERSON ( 'UNSPECIFIED', 'UNSPECIFIED', 'UNSPECIFIED', ('UNSPECIFIED'), ('UNSPECIFIED'), ('UNSPECIFIED') ) ;
#13 = CARTESIAN_POINT ( 'NONE',  ( 1.492608272355439415E-13, -5.235365066354933894E-15, 42.74999999999999289 ) ) ;
#14 = CARTESIAN_POINT ( 'NONE',  ( -2.839103739574742144E-31, 0.4149999999999999800, -8.131516293641283255E-17 ) ) ;
#15 = CC_DESIGN_PERSON_AND_ORGANIZATION_ASSIGNMENT ( #301, #120, ( #176 ) ) ;
#16 = CALENDAR_DATE ( 2021, 17, 12 ) ;
#17 =( LENGTH_UNIT ( ) NAMED_UNIT ( * ) SI_UNIT ( .MILLI., .METRE. ) );
#18 = DATE_TIME_ROLE ( 'creation_date' ) ;
#19 = CARTESIAN_POINT ( 'NONE',  ( 1.081664311330171067E-15, -3.793967683245105178E-17, 0.3098009716668196356 ) ) ;
#20 = AXIS2_PLACEMENT_3D ( 'NONE', #87, #23, #111 ) ;
#21 = DIRECTION ( 'NONE',  ( 0.0000000000000000000, 1.000000000000000000, 0.0000000000000000000 ) ) ;
#22 = EDGE_CURVE ( 'NONE', #287, #287, #70, .T. ) ;
#23 = DIRECTION ( 'NONE',  ( 3.491481338843133355E-15, -1.224646799147353207E-16, 1.000000000000000000 ) ) ;
#24 = CARTESIAN_POINT ( 'NONE',  ( 2.094888803305879619E-15, -7.347880794884117764E-17, 0.5999999999999999778 ) ) ;
#25 =( GEOMETRIC_REPRESENTATION_CONTEXT ( 3 ) GLOBAL_UNCERTAINTY_ASSIGNED_CONTEXT ( ( #216 ) ) GLOBAL_UNIT_ASSIGNED_CONTEXT ( ( #17, #105, #291 ) ) REPRESENTATION_CONTEXT ( 'NONE', 'WORKASPACE' ) );
#26 = COORDINATED_UNIVERSAL_TIME_OFFSET ( 1, 0, .AHEAD. ) ;
#27 = FACE_BOUND ( 'NONE', #218, .T. ) ;
#28 = DATE_TIME_ROLE ( 'classification_date' ) ;
#29 = DIRECTION ( 'NONE',  ( 0.0000000000000000000, 1.000000000000000000, 0.0000000000000000000 ) ) ;
#30 = FACE_OUTER_BOUND ( 'NONE', #130, .T. ) ;
#31 = SECURITY_CLASSIFICATION ( '', '', #42 ) ;
#32 = CIRCLE ( 'NONE', #75, 0.4149999999999999800 ) ;
#33 = DIRECTION ( 'NONE',  ( 0.0000000000000000000, 1.000000000000000000, 0.0000000000000000000 ) ) ;
#34 = EDGE_CURVE ( 'NONE', #294, #294, #32, .T. ) ;
#35 = CIRCLE ( 'NONE', #197, 1.000000000000000666 ) ;
#36 = COORDINATED_UNIVERSAL_TIME_OFFSET ( 1, 0, .AHEAD. ) ;
#37 = CARTESIAN_POINT ( 'NONE',  ( 0.0000000000000000000, 0.0000000000000000000, 0.0000000000000000000 ) ) ;
#38 = ORIENTED_EDGE ( 'NONE', *, *, #276, .T. ) ;
#39 = AXIS2_PLACEMENT_3D ( 'NONE', #146, #185, #284 ) ;
#40 = PERSON_AND_ORGANIZATION_ROLE ( 'creator' ) ;
#41 = ORIENTED_EDGE ( 'NONE', *, *, #51, .F. ) ;
#42 = SECURITY_CLASSIFICATION_LEVEL ( 'unclassified' ) ;
#43 = ORIENTED_EDGE ( 'NONE', *, *, #94, .T. ) ;
#44 = ADVANCED_FACE ( 'NONE', ( #224, #281 ), #237, .T. ) ;
#45 = CARTESIAN_POINT ( 'NONE',  ( 1.501336975702547217E-13, 7.498798913309216879E-33, 43.00000000000000000 ) ) ;
#46 = APPROVAL_PERSON_ORGANIZATION ( #107, #65, #297 ) ;
#47 = DIRECTION ( 'NONE',  ( -3.491481338843133355E-15, 1.224646799147353207E-16, -1.000000000000000000 ) ) ;
#48 = APPLICATION_CONTEXT ( 'configuration controlled 3d designs of mechanical parts and assemblies' ) ;
#49 = CYLINDRICAL_SURFACE ( 'NONE', #242, 1.007999999999999341 ) ;
#50 = DIRECTION ( 'NONE',  ( 3.491481338843133355E-15, -1.224646799147353207E-16, 1.000000000000000000 ) ) ;
#51 = EDGE_CURVE ( 'NONE', #269, #269, #140, .T. ) ;
#52 = AXIS2_PLACEMENT_3D ( 'NONE', #97, #163, #234 ) ;
#53 = LOCAL_TIME ( 11, 35, 12.00000000000000000, #36 ) ;
#54 = VERTEX_POINT ( 'NONE', #121 ) ;
#55 = FACE_OUTER_BOUND ( 'NONE', #57, .T. ) ;
#56 = CYLINDRICAL_SURFACE ( 'NONE', #210, 1.249999999999998668 ) ;
#57 = EDGE_LOOP ( 'NONE', ( #203 ) ) ;
#58 = AXIS2_PLACEMENT_3D ( 'NONE', #288, #99, #145 ) ;
#59 = PERSON_AND_ORGANIZATION ( #12, #63 ) ;
#60 = CARTESIAN_POINT ( 'NONE',  ( 2.793185071074506684E-14, 1.007999999999998897, 8.000000000000000000 ) ) ;
#61 = ADVANCED_FACE ( 'NONE', ( #302, #278 ), #160, .T. ) ;
#62 = CARTESIAN_POINT ( 'NONE',  ( 3.479771361045492082E-14, 1.249999999999995559, 9.966461290606465795 ) ) ;
#63 = ORGANIZATION ( 'UNSPECIFIED', 'UNSPECIFIED', '' ) ;
#64 = ORIENTED_EDGE ( 'NONE', *, *, #22, .F. ) ;
#65 = APPROVAL ( #283, 'UNSPECIFIED' ) ;
#66 = ORIENTED_EDGE ( 'NONE', *, *, #151, .F. ) ;
#67 = EDGE_LOOP ( 'NONE', ( #85 ) ) ;
#68 = AXIS2_PLACEMENT_3D ( 'NONE', #90, #50, #229 ) ;
#69 = DIRECTION ( 'NONE',  ( -3.491481338843133355E-15, 1.224646799147353207E-16, -1.000000000000000000 ) ) ;
#70 = CIRCLE ( 'NONE', #122, 1.007999999999998897 ) ;
#71 = DIRECTION ( 'NONE',  ( 4.275831445896958607E-31, 1.000000000000000000, 1.224646799147353207E-16 ) ) ;
#72 = PLANE ( 'NONE',  #277 ) ;
#73 = TOROIDAL_SURFACE ( 'NONE', #285, 3.008000000000000007, 2.000000000000000000 ) ;
#74 = DIRECTION ( 'NONE',  ( 0.0000000000000000000, 1.000000000000000000, 0.0000000000000000000 ) ) ;
#75 = AXIS2_PLACEMENT_3D ( 'NONE', #108, #69, #253 ) ;
#76 = DIRECTION ( 'NONE',  ( 0.0000000000000000000, 1.000000000000000000, 0.0000000000000000000 ) ) ;
#77 = ADVANCED_BREP_SHAPE_REPRESENTATION ( '976259', ( #133, #230, #188 ), #25 ) ;
#78 = CARTESIAN_POINT ( 'NONE',  ( 2.793185071074506684E-14, 7.558789304615748823E-33, 8.000000000000000000 ) ) ;
#79 = PERSON_AND_ORGANIZATION ( #12, #63 ) ;
#80 = DIRECTION ( 'NONE',  ( 1.000000000000000000, 0.0000000000000000000, 0.0000000000000000000 ) ) ;
#81 = ORIENTED_EDGE ( 'NONE', *, *, #151, .T. ) ;
#82 = PERSON_AND_ORGANIZATION ( #12, #63 ) ;
#83 = CIRCLE ( 'NONE', #252, 0.9515910231611317549 ) ;
#84 = COORDINATED_UNIVERSAL_TIME_OFFSET ( 1, 0, .AHEAD. ) ;
#85 = ORIENTED_EDGE ( 'NONE', *, *, #22, .T. ) ;
#86 = ADVANCED_FACE ( 'NONE', ( #204, #178 ), #49, .T. ) ;
#87 = CARTESIAN_POINT ( 'NONE',  ( 3.479771361045492082E-14, -1.220539491836720822E-15, 9.966461290606465795 ) ) ;
#88 = DIRECTION ( 'NONE',  ( 4.275831445896958607E-31, 1.000000000000000000, 1.224646799147353207E-16 ) ) ;
#89 = ORIENTED_EDGE ( 'NONE', *, *, #34, .T. ) ;
#90 = CARTESIAN_POINT ( 'NONE',  ( 1.081664311330171067E-15, -3.793967683245105178E-17, 0.3098009716668196356 ) ) ;
#91 = EDGE_LOOP ( 'NONE', ( #192 ) ) ;
#92 = DATE_AND_TIME ( #143, #221 ) ;
#93 = DIRECTION ( 'NONE',  ( -3.491481338843133355E-15, 1.224646799147353207E-16, -1.000000000000000000 ) ) ;
#94 = EDGE_CURVE ( 'NONE', #167, #167, #35, .T. ) ;
#95 = CALENDAR_DATE ( 2021, 17, 12 ) ;
#96 = CARTESIAN_POINT ( 'NONE',  ( 0.0000000000000000000, 0.0000000000000000000, 0.0000000000000000000 ) ) ;
#97 = CARTESIAN_POINT ( 'NONE',  ( 0.0000000000000000000, 0.0000000000000000000, 0.0000000000000000000 ) ) ;
#98 = ADVANCED_FACE ( 'NONE', ( #137, #114 ), #73, .F. ) ;
#99 = DIRECTION ( 'NONE',  ( -3.491481338843133355E-15, 1.224646799147353207E-16, -1.000000000000000000 ) ) ;
#100 = VERTEX_POINT ( 'NONE', #60 ) ;
#101 = ADVANCED_FACE ( 'NONE', ( #4 ), #72, .F. ) ;
#102 = CARTESIAN_POINT ( 'NONE',  ( 1.501336975702547217E-13, 0.9999999999999954481, 43.00000000000000000 ) ) ;
#103 = CARTESIAN_POINT ( 'NONE',  ( 3.253235951404484411E-14, 1.076148347421859164, 9.317638090205031531 ) ) ;
#104 = CC_DESIGN_PERSON_AND_ORGANIZATION_ASSIGNMENT ( #82, #40, ( #254 ) ) ;
#105 =( NAMED_UNIT ( * ) PLANE_ANGLE_UNIT ( ) SI_UNIT ( $, .RADIAN. ) );
#106 = ORIENTED_EDGE ( 'NONE', *, *, #173, .T. ) ;
#107 = PERSON_AND_ORGANIZATION ( #12, #63 ) ;
#108 = CARTESIAN_POINT ( 'NONE',  ( -4.613573789621979992E-31, 1.618223849926905696E-32, -1.321380051010279890E-16 ) ) ;
#109 = CC_DESIGN_SECURITY_CLASSIFICATION ( #31, ( #176 ) ) ;
#110 = PERSON_AND_ORGANIZATION ( #12, #63 ) ;
#111 = DIRECTION ( 'NONE',  ( 0.0000000000000000000, -1.000000000000000000, 0.0000000000000000000 ) ) ;
#112 = CARTESIAN_POINT ( 'NONE',  ( 3.072503578181958615E-14, -8.673617379884035472E-16, 8.800000000000002487 ) ) ;
#113 = ADVANCED_FACE ( 'NONE', ( #166, #27 ), #262, .T. ) ;
#114 = FACE_OUTER_BOUND ( 'NONE', #198, .T. ) ;
#115 = AXIS2_PLACEMENT_3D ( 'NONE', #260, #6, #7 ) ;
#116 = EDGE_LOOP ( 'NONE', ( #128 ) ) ;
#117 = APPROVAL ( #243, 'UNSPECIFIED' ) ;
#118 = DIRECTION ( 'NONE',  ( -3.491481338843133355E-15, 1.224646799147353207E-16, -1.000000000000000000 ) ) ;
#119 = CARTESIAN_POINT ( 'NONE',  ( 3.072503578181957984E-14, -1.077689183249670803E-15, 8.800000000000000711 ) ) ;
#120 = PERSON_AND_ORGANIZATION_ROLE ( 'design_supplier' ) ;
#121 = CARTESIAN_POINT ( 'NONE',  ( 1.081664311330171462E-15, 0.9515910231611317549, 0.3098009716668197466 ) ) ;
#122 = AXIS2_PLACEMENT_3D ( 'NONE', #24, #181, #255 ) ;
#123 = DIRECTION ( 'NONE',  ( 3.491481338843133355E-15, -1.224646799147353207E-16, 1.000000000000000000 ) ) ;
#124 = DIRECTION ( 'NONE',  ( -4.275831445896958607E-31, -1.000000000000000000, -1.224646799147353207E-16 ) ) ;
#125 = DATE_AND_TIME ( #16, #232 ) ;
#126 = AXIS2_PLACEMENT_3D ( 'NONE', #164, #123, #286 ) ;
#127 = CALENDAR_DATE ( 2021, 17, 12 ) ;
#128 = ORIENTED_EDGE ( 'NONE', *, *, #10, .F. ) ;
#129 = DIRECTION ( 'NONE',  ( 0.0000000000000000000, 0.0000000000000000000, 1.000000000000000000 ) ) ;
#130 = EDGE_LOOP ( 'NONE', ( #41 ) ) ;
#131 = CC_DESIGN_PERSON_AND_ORGANIZATION_ASSIGNMENT ( #59, #194, ( #233 ) ) ;
#133 = MANIFOLD_SOLID_BREP ( 'Corps-Déplacer/Copier1[1]', #212 ) ;
#132 = COORDINATED_UNIVERSAL_TIME_OFFSET ( 1, 0, .AHEAD. ) ;
#134 = DIRECTION ( 'NONE',  ( 4.047810240978114935E-31, 1.000000000000000000, 1.139357293308469753E-16 ) ) ;
#135 = DIRECTION ( 'NONE',  ( -3.491481338843133355E-15, 1.224646799147353207E-16, -1.000000000000000000 ) ) ;
#136 = CC_DESIGN_APPROVAL ( #117, ( #254 ) ) ;
#137 = FACE_OUTER_BOUND ( 'NONE', #296, .T. ) ;
#138 = DIRECTION ( 'NONE',  ( 4.275831445896958607E-31, 1.000000000000000000, 1.224646799147353207E-16 ) ) ;
#139 = ORIENTED_EDGE ( 'NONE', *, *, #271, .F. ) ;
#140 = CIRCLE ( 'NONE', #174, 1.249999999999996669 ) ;
#141 = ADVANCED_FACE ( 'NONE', ( #30, #55 ), #56, .T. ) ;
#142 = FACE_OUTER_BOUND ( 'NONE', #213, .T. ) ;
#143 = CALENDAR_DATE ( 2021, 17, 12 ) ;
#144 = CARTESIAN_POINT ( 'NONE',  ( 2.793185071074506684E-14, 7.558789304615748823E-33, 8.000000000000000000 ) ) ;
#145 = DIRECTION ( 'NONE',  ( 0.0000000000000000000, 1.000000000000000000, 0.0000000000000000000 ) ) ;
#146 = CARTESIAN_POINT ( 'NONE',  ( 1.501336975702547217E-13, -5.265981236333618470E-15, 43.00000000000000000 ) ) ;
#147 = APPROVAL_STATUS ( 'not_yet_approved' ) ;
#148 = APPLICATION_PROTOCOL_DEFINITION ( 'international standard', 'config_control_design', 1994, #48 ) ;
#149 = VERTEX_POINT ( 'NONE', #217 ) ;
#150 = EDGE_LOOP ( 'NONE', ( #179 ) ) ;
#151 = EDGE_CURVE ( 'NONE', #100, #100, #5, .T. ) ;
#152 = EDGE_LOOP ( 'NONE', ( #64 ) ) ;
#153 = EDGE_CURVE ( 'NONE', #241, #241, #205, .T. ) ;
#154 = COORDINATED_UNIVERSAL_TIME_OFFSET ( 1, 0, .AHEAD. ) ;
#155 = DIRECTION ( 'NONE',  ( -3.491481338843133355E-15, 1.224646799147353207E-16, -1.000000000000000000 ) ) ;
#156 = DIRECTION ( 'NONE',  ( -3.491481338843133355E-15, 1.224646799147353207E-16, -1.000000000000000000 ) ) ;
#157 = AXIS2_PLACEMENT_3D ( 'NONE', #45, #156, #138 ) ;
#158 = FACE_OUTER_BOUND ( 'NONE', #244, .T. ) ;
#159 = FACE_OUTER_BOUND ( 'NONE', #225, .T. ) ;
#160 = CONICAL_SURFACE ( 'NONE', #20, 1.249999999999996669, 0.2617993877991437457 ) ;
#161 = PLANE ( 'NONE',  #126 ) ;
#162 = APPROVAL_DATE_TIME ( #201, #65 ) ;
#163 = DIRECTION ( 'NONE',  ( -3.491481338843133355E-15, 1.224646799147353207E-16, -1.000000000000000000 ) ) ;
#164 = CARTESIAN_POINT ( 'NONE',  ( -2.306786894810989996E-31, 8.091119249634528482E-33, -6.606900255051399452E-17 ) ) ;
#165 = AXIS2_PLACEMENT_3D ( 'NONE', #239, #211, #33 ) ;
#166 = FACE_OUTER_BOUND ( 'NONE', #270, .T. ) ;
#167 = VERTEX_POINT ( 'NONE', #102 ) ;
#168 = CC_DESIGN_DATE_AND_TIME_ASSIGNMENT ( #92, #28, ( #31 ) ) ;
#169 = APPROVAL_DATE_TIME ( #125, #117 ) ;
#170 = APPROVAL_PERSON_ORGANIZATION ( #79, #209, #171 ) ;
#171 = APPROVAL_ROLE ( '' ) ;
#172 = VERTEX_POINT ( 'NONE', #103 ) ;
#173 = EDGE_CURVE ( 'NONE', #172, #172, #183, .T. ) ;
#174 = AXIS2_PLACEMENT_3D ( 'NONE', #1, #135, #21 ) ;
#175 = CC_DESIGN_APPROVAL ( #209, ( #176 ) ) ;
#176 = PRODUCT_DEFINITION_FORMATION_WITH_SPECIFIED_SOURCE ( 'ANY', '', #233, .NOT_KNOWN. ) ;
#177 = CARTESIAN_POINT ( 'NONE',  ( 0.0000000000000000000, 0.0000000000000000000, 0.0000000000000000000 ) ) ;
#178 = FACE_OUTER_BOUND ( 'NONE', #91, .T. ) ;
#179 = ORIENTED_EDGE ( 'NONE', *, *, #173, .F. ) ;
#180 = PLANE ( 'NONE',  #157 ) ;
#181 = DIRECTION ( 'NONE',  ( -3.491481338843133355E-15, 1.224646799147353207E-16, -1.000000000000000000 ) ) ;
#182 = PERSON_AND_ORGANIZATION_ROLE ( 'creator' ) ;
#183 = CIRCLE ( 'NONE', #58, 1.076148347421860274 ) ;
#184 = FACE_OUTER_BOUND ( 'NONE', #298, .T. ) ;
#185 = DIRECTION ( 'NONE',  ( -3.491481338843133355E-15, 1.224646799147353207E-16, -1.000000000000000000 ) ) ;
#186 = CARTESIAN_POINT ( 'NONE',  ( 2.094888803305880013E-15, 1.007999999999998897, 0.6000000000000000888 ) ) ;
#187 = DESIGN_CONTEXT ( 'detailed design', #48, 'design' ) ;
#188 = AXIS2_PLACEMENT_3D ( 'NONE', #37, #129, #80 ) ;
#189 = DIRECTION ( 'NONE',  ( 3.491481338843133355E-15, -1.224646799147353207E-16, 1.000000000000000000 ) ) ;
#190 = CC_DESIGN_PERSON_AND_ORGANIZATION_ASSIGNMENT ( #110, #273, ( #31 ) ) ;
#191 = DATE_AND_TIME ( #295, #199 ) ;
#192 = ORIENTED_EDGE ( 'NONE', *, *, #271, .T. ) ;
#193 = APPROVAL_ROLE ( '' ) ;
#194 = PERSON_AND_ORGANIZATION_ROLE ( 'design_owner' ) ;
#195 = ORIENTED_EDGE ( 'NONE', *, *, #94, .F. ) ;
#196 = SHAPE_DEFINITION_REPRESENTATION ( #303, #77 ) ;
#197 = AXIS2_PLACEMENT_3D ( 'NONE', #231, #47, #280 ) ;
#198 = EDGE_LOOP ( 'NONE', ( #106 ) ) ;
#199 = LOCAL_TIME ( 11, 35, 12.00000000000000000, #132 ) ;
#200 = PRODUCT_RELATED_PRODUCT_CATEGORY ( 'detail', '', ( #233 ) ) ;
#201 = DATE_AND_TIME ( #95, #257 ) ;
#202 = DIRECTION ( 'NONE',  ( -3.491481338843133355E-15, 1.224646799147353207E-16, -1.000000000000000000 ) ) ;
#203 = ORIENTED_EDGE ( 'NONE', *, *, #153, .T. ) ;
#204 = FACE_OUTER_BOUND ( 'NONE', #152, .T. ) ;
#205 = CIRCLE ( 'NONE', #246, 1.250000000000000666 ) ;
#206 = EDGE_LOOP ( 'NONE', ( #81 ) ) ;
#207 = FACE_BOUND ( 'NONE', #116, .T. ) ;
#208 = DIRECTION ( 'NONE',  ( -3.491481338843133355E-15, 1.224646799147353207E-16, -1.000000000000000000 ) ) ;
#209 = APPROVAL ( #147, 'UNSPECIFIED' ) ;
#210 = AXIS2_PLACEMENT_3D ( 'NONE', #96, #240, #9 ) ;
#211 = DIRECTION ( 'NONE',  ( -3.491481338843133355E-15, 1.224646799147353207E-16, -1.000000000000000000 ) ) ;
#212 = CLOSED_SHELL ( 'NONE', ( #101, #263, #98, #61, #141, #113, #2 ) ) ;
#213 = EDGE_LOOP ( 'NONE', ( #38 ) ) ;
#214 = DATE_AND_TIME ( #127, #53 ) ;
#215 = EDGE_LOOP ( 'NONE', ( #249 ) ) ;
#216 = UNCERTAINTY_MEASURE_WITH_UNIT (LENGTH_MEASURE( 1.000000000000000082E-05 ), #17, 'distance_accuracy_value', 'NONE');
#217 = CARTESIAN_POINT ( 'NONE',  ( 2.793185071074506684E-14, 1.007999999999998897, 8.000000000000000000 ) ) ;
#218 = EDGE_LOOP ( 'NONE', ( #43 ) ) ;
#219 = ADVANCED_FACE ( 'NONE', ( #184 ), #161, .F. ) ;
#220 = APPLICATION_PROTOCOL_DEFINITION ( 'international standard', 'config_control_design', 1994, #299 ) ;
#221 = LOCAL_TIME ( 11, 35, 12.00000000000000000, #26 ) ;
#222 = VERTEX_POINT ( 'NONE', #245 ) ;
#223 = PERSON_AND_ORGANIZATION ( #12, #63 ) ;
#224 = FACE_BOUND ( 'NONE', #250, .T. ) ;
#225 = EDGE_LOOP ( 'NONE', ( #139 ) ) ;
#226 = CIRCLE ( 'NONE', #272, 1.008000000000000007 ) ;
#227 = CLOSED_SHELL ( 'NONE', ( #219, #44, #282, #86, #258 ) ) ;
#228 = EDGE_LOOP ( 'NONE', ( #251 ) ) ;
#229 = DIRECTION ( 'NONE',  ( -4.047810240978114935E-31, -1.000000000000000000, -1.139357293308469753E-16 ) ) ;
#230 = MANIFOLD_SOLID_BREP ( 'Corps-Déplacer/Copier1[2]', #227 ) ;
#231 = CARTESIAN_POINT ( 'NONE',  ( 1.501336975702547217E-13, -5.265981236333618470E-15, 43.00000000000000000 ) ) ;
#232 = LOCAL_TIME ( 11, 35, 12.00000000000000000, #84 ) ;
#233 = PRODUCT ( '976259', '976259', '', ( #265 ) ) ;
#234 = DIRECTION ( 'NONE',  ( 4.275831445896958607E-31, 1.000000000000000000, 1.224646799147353207E-16 ) ) ;
#235 = CYLINDRICAL_SURFACE ( 'NONE', #52, 1.008000000000000007 ) ;
#236 = FACE_OUTER_BOUND ( 'NONE', #274, .T. ) ;
#237 = CONICAL_SURFACE ( 'NONE', #68, 0.9515910231611317549, 1.047197551196592746 ) ;
#238 = AXIS2_PLACEMENT_3D ( 'NONE', #11, #118, #29 ) ;
#239 = CARTESIAN_POINT ( 'NONE',  ( 2.793185071074506684E-14, -9.797174393178825657E-16, 8.000000000000000000 ) ) ;
#240 = DIRECTION ( 'NONE',  ( -3.491481338843133355E-15, 1.224646799147353207E-16, -1.000000000000000000 ) ) ;
#241 = VERTEX_POINT ( 'NONE', #264 ) ;
#242 = AXIS2_PLACEMENT_3D ( 'NONE', #177, #202, #88 ) ;
#243 = APPROVAL_STATUS ( 'not_yet_approved' ) ;
#244 = EDGE_LOOP ( 'NONE', ( #195 ) ) ;
#245 = CARTESIAN_POINT ( 'NONE',  ( 3.072503578181957984E-14, 1.007999999999998897, 8.800000000000000711 ) ) ;
#246 = AXIS2_PLACEMENT_3D ( 'NONE', #13, #93, #74 ) ;
#247 = ORIENTED_EDGE ( 'NONE', *, *, #276, .F. ) ;
#248 = CC_DESIGN_PERSON_AND_ORGANIZATION_ASSIGNMENT ( #223, #182, ( #176 ) ) ;
#249 = ORIENTED_EDGE ( 'NONE', *, *, #51, .T. ) ;
#250 = EDGE_LOOP ( 'NONE', ( #275 ) ) ;
#251 = ORIENTED_EDGE ( 'NONE', *, *, #10, .T. ) ;
#252 = AXIS2_PLACEMENT_3D ( 'NONE', #19, #155, #134 ) ;
#253 = DIRECTION ( 'NONE',  ( 4.275831445896958607E-31, 1.000000000000000000, 1.224646799147352961E-16 ) ) ;
#254 = PRODUCT_DEFINITION ( 'UNKNOWN', '', #176, #187 ) ;
#255 = DIRECTION ( 'NONE',  ( 3.821289572196900857E-31, 1.000000000000000000, 1.075597393338795298E-16 ) ) ;
#256 = DIRECTION ( 'NONE',  ( -4.275831445896958607E-31, -1.000000000000000000, -1.224646799147353207E-16 ) ) ;
#257 = LOCAL_TIME ( 11, 35, 12.00000000000000000, #154 ) ;
#258 = ADVANCED_FACE ( 'NONE', ( #159 ), #259, .T. ) ;
#259 = PLANE ( 'NONE',  #289 ) ;
#260 = CARTESIAN_POINT ( 'NONE',  ( 2.094888803305879619E-15, -7.347880794884117764E-17, 0.5999999999999999778 ) ) ;
#261 = FACE_OUTER_BOUND ( 'NONE', #67, .T. ) ;
#262 = CONICAL_SURFACE ( 'NONE', #39, 1.000000000000000666, 0.7853981633974479459 ) ;
#263 = ADVANCED_FACE ( 'NONE', ( #236, #142 ), #235, .T. ) ;
#264 = CARTESIAN_POINT ( 'NONE',  ( 1.492608272355439415E-13, 1.249999999999995559, 42.74999999999999289 ) ) ;
#265 = MECHANICAL_CONTEXT ( 'NONE', #299, 'mechanical' ) ;
#266 = CONICAL_SURFACE ( 'NONE', #115, 1.007999999999998897, 0.1919862177193697450 ) ;
#267 = PERSON_AND_ORGANIZATION ( #12, #63 ) ;
#268 = ORIENTED_EDGE ( 'NONE', *, *, #153, .F. ) ;
#269 = VERTEX_POINT ( 'NONE', #62 ) ;
#270 = EDGE_LOOP ( 'NONE', ( #268 ) ) ;
#271 = EDGE_CURVE ( 'NONE', #149, #149, #279, .T. ) ;
#272 = AXIS2_PLACEMENT_3D ( 'NONE', #119, #208, #76 ) ;
#273 = PERSON_AND_ORGANIZATION_ROLE ( 'classification_officer' ) ;
#274 = EDGE_LOOP ( 'NONE', ( #66 ) ) ;
#275 = ORIENTED_EDGE ( 'NONE', *, *, #34, .F. ) ;
#276 = EDGE_CURVE ( 'NONE', #222, #222, #226, .T. ) ;
#277 = AXIS2_PLACEMENT_3D ( 'NONE', #78, #290, #124 ) ;
#278 = FACE_OUTER_BOUND ( 'NONE', #215, .T. ) ;
#279 = CIRCLE ( 'NONE', #238, 1.008000000000000007 ) ;
#280 = DIRECTION ( 'NONE',  ( 0.0000000000000000000, 1.000000000000000000, 0.0000000000000000000 ) ) ;
#281 = FACE_OUTER_BOUND ( 'NONE', #228, .T. ) ;
#282 = ADVANCED_FACE ( 'NONE', ( #207, #261 ), #266, .T. ) ;
#283 = APPROVAL_STATUS ( 'not_yet_approved' ) ;
#284 = DIRECTION ( 'NONE',  ( 0.0000000000000000000, 1.000000000000000000, 0.0000000000000000000 ) ) ;
#285 = AXIS2_PLACEMENT_3D ( 'NONE', #112, #3, #71 ) ;
#286 = DIRECTION ( 'NONE',  ( -4.275831445896958607E-31, -1.000000000000000000, -1.224646799147353207E-16 ) ) ;
#287 = VERTEX_POINT ( 'NONE', #186 ) ;
#288 = CARTESIAN_POINT ( 'NONE',  ( 3.253235951404484411E-14, -1.141081566278305029E-15, 9.317638090205031531 ) ) ;
#289 = AXIS2_PLACEMENT_3D ( 'NONE', #144, #189, #256 ) ;
#290 = DIRECTION ( 'NONE',  ( 3.491481338843133355E-15, -1.224646799147353207E-16, 1.000000000000000000 ) ) ;
#291 =( NAMED_UNIT ( * ) SI_UNIT ( $, .STERADIAN. ) SOLID_ANGLE_UNIT ( ) );
#292 = CC_DESIGN_DATE_AND_TIME_ASSIGNMENT ( #191, #18, ( #254 ) ) ;
#293 = APPROVAL_DATE_TIME ( #214, #209 ) ;
#294 = VERTEX_POINT ( 'NONE', #14 ) ;
#295 = CALENDAR_DATE ( 2021, 17, 12 ) ;
#296 = EDGE_LOOP ( 'NONE', ( #247 ) ) ;
#297 = APPROVAL_ROLE ( '' ) ;
#298 = EDGE_LOOP ( 'NONE', ( #89 ) ) ;
#299 = APPLICATION_CONTEXT ( 'configuration controlled 3d designs of mechanical parts and assemblies' ) ;
#300 = CC_DESIGN_APPROVAL ( #65, ( #31 ) ) ;
#301 = PERSON_AND_ORGANIZATION ( #12, #63 ) ;
#302 = FACE_BOUND ( 'NONE', #150, .T. ) ;
#303 = PRODUCT_DEFINITION_SHAPE ( 'NONE', 'NONE',  #254 ) ;
ENDSEC;
END-ISO-10303-21;
