ISO-10303-21;
HEADER;
FILE_DESCRIPTION (( 'STEP AP203' ),
    '1' );
FILE_NAME ('976258.step',
    '2021-11-24T06:51:39',
    ( '' ),
    ( '' ),
    'SwSTEP 2.0',
    'SolidWorks 2019',
    '' );
FILE_SCHEMA (( 'CONFIG_CONTROL_DESIGN' ));
ENDSEC;

DATA;
#1 = LOCAL_TIME ( 7, 51, 39.00000000000000000, #159 ) ;
#2 = ADVANCED_FACE ( 'NONE', ( #155, #215 ), #5, .T. ) ;
#3 = AXIS2_PLACEMENT_3D ( 'NONE', #175, #23, #4 ) ;
#4 = DIRECTION ( 'NONE',  ( -4.275831445896958607E-31, -1.000000000000000000, -1.224646799147353207E-16 ) ) ;
#5 = CYLINDRICAL_SURFACE ( 'NONE', #32, 0.7500000000000004441 ) ;
#6 = ADVANCED_BREP_SHAPE_REPRESENTATION ( '976258', ( #189, #25, #148 ), #167 ) ;
#7 = EDGE_LOOP ( 'NONE', ( #176 ) ) ;
#8 = CLOSED_SHELL ( 'NONE', ( #95, #48, #98 ) ) ;
#9 = AXIS2_PLACEMENT_3D ( 'NONE', #230, #82, #136 ) ;
#10 = PRODUCT_DEFINITION ( 'UNKNOWN', '', #213, #190 ) ;
#11 = APPROVAL_STATUS ( 'not_yet_approved' ) ;
#12 = FACE_OUTER_BOUND ( 'NONE', #127, .T. ) ;
#13 = PLANE ( 'NONE',  #242 ) ;
#14 = EDGE_CURVE ( 'NONE', #117, #117, #197, .T. ) ;
#15 = APPROVAL_DATE_TIME ( #33, #80 ) ;
#16 = ORIENTED_EDGE ( 'NONE', *, *, #40, .T. ) ;
#17 = DATE_TIME_ROLE ( 'creation_date' ) ;
#18 = EDGE_LOOP ( 'NONE', ( #129 ) ) ;
#19 = CIRCLE ( 'NONE', #142, 0.02499999999999999792 ) ;
#20 = DIRECTION ( 'NONE',  ( 0.0000000000000000000, 1.000000000000000000, 0.0000000000000000000 ) ) ;
#21 = SHAPE_DEFINITION_REPRESENTATION ( #89, #6 ) ;
#22 = AXIS2_PLACEMENT_3D ( 'NONE', #43, #195, #154 ) ;
#23 = DIRECTION ( 'NONE',  ( 3.491481338843133355E-15, -1.224646799147353207E-16, 1.000000000000000000 ) ) ;
#24 = FACE_BOUND ( 'NONE', #221, .T. ) ;
#25 = MANIFOLD_SOLID_BREP ( 'Corps-Déplacer/Copier1[2]', #8 ) ;
#26 = DIRECTION ( 'NONE',  ( -3.491481338843133355E-15, 1.224646799147353207E-16, -1.000000000000000000 ) ) ;
#27 = DIRECTION ( 'NONE',  ( 0.0000000000000000000, 0.0000000000000000000, 1.000000000000000000 ) ) ;
#28 = PRODUCT_RELATED_PRODUCT_CATEGORY ( 'detail', '', ( #229 ) ) ;
#29 = CLOSED_SHELL ( 'NONE', ( #228, #2, #211, #81, #151, #144 ) ) ;
#30 = DIRECTION ( 'NONE',  ( -3.491481338843133355E-15, 1.224646799147353207E-16, -1.000000000000000000 ) ) ;
#31 = DIRECTION ( 'NONE',  ( 0.0000000000000000000, 1.000000000000000000, 0.0000000000000000000 ) ) ;
#32 = AXIS2_PLACEMENT_3D ( 'NONE', #44, #101, #232 ) ;
#33 = DATE_AND_TIME ( #235, #1 ) ;
#34 = DATE_AND_TIME ( #222, #60 ) ;
#35 = EDGE_LOOP ( 'NONE', ( #52 ) ) ;
#36 = CC_DESIGN_PERSON_AND_ORGANIZATION_ASSIGNMENT ( #239, #147, ( #213 ) ) ;
#37 = CIRCLE ( 'NONE', #156, 1.500000000000003331 ) ;
#38 = DIRECTION ( 'NONE',  ( 4.275831445896958607E-31, 1.000000000000000000, 1.224646799147353207E-16 ) ) ;
#39 = LOCAL_TIME ( 7, 51, 39.00000000000000000, #220 ) ;
#40 = EDGE_CURVE ( 'NONE', #100, #100, #172, .T. ) ;
#41 = DIRECTION ( 'NONE',  ( 0.0000000000000000000, 1.000000000000000000, 0.0000000000000000000 ) ) ;
#42 = PLANE ( 'NONE',  #3 ) ;
#43 = CARTESIAN_POINT ( 'NONE',  ( -4.275831445896958716E-32, 1.499759782661857779E-33, -1.224646799147353269E-17 ) ) ;
#44 = CARTESIAN_POINT ( 'NONE',  ( 0.0000000000000000000, 0.0000000000000000000, 0.0000000000000000000 ) ) ;
#45 = APPLICATION_PROTOCOL_DEFINITION ( 'international standard', 'config_control_design', 1994, #61 ) ;
#46 = CARTESIAN_POINT ( 'NONE',  ( 5.428441773134818840E-15, 0.7499999999999997780, 1.554767517369426200 ) ) ;
#47 = FACE_OUTER_BOUND ( 'NONE', #164, .T. ) ;
#48 = ADVANCED_FACE ( 'NONE', ( #193, #24 ), #201, .T. ) ;
#49 = APPROVAL_PERSON_ORGANIZATION ( #126, #233, #59 ) ;
#50 = CARTESIAN_POINT ( 'NONE',  ( 0.0000000000000000000, 0.0000000000000000000, 0.0000000000000000000 ) ) ;
#51 = DATE_AND_TIME ( #94, #39 ) ;
#52 = ORIENTED_EDGE ( 'NONE', *, *, #133, .T. ) ;
#53 = PERSON_AND_ORGANIZATION ( #131, #202 ) ;
#54 = EDGE_LOOP ( 'NONE', ( #184 ) ) ;
#55 = EDGE_CURVE ( 'NONE', #62, #62, #19, .T. ) ;
#56 = CARTESIAN_POINT ( 'NONE',  ( 1.326762908760390423E-13, -4.653657836759941941E-15, 38.00000000000000000 ) ) ;
#57 = EDGE_CURVE ( 'NONE', #85, #85, #37, .T. ) ;
#58 = AXIS2_PLACEMENT_3D ( 'NONE', #66, #160, #161 ) ;
#59 = APPROVAL_ROLE ( '' ) ;
#60 = LOCAL_TIME ( 7, 51, 39.00000000000000000, #200 ) ;
#61 = APPLICATION_CONTEXT ( 'configuration controlled 3d designs of mechanical parts and assemblies' ) ;
#62 = VERTEX_POINT ( 'NONE', #150 ) ;
#63 = CARTESIAN_POINT ( 'NONE',  ( -4.275831445896958716E-32, 1.499759782661857779E-33, -1.224646799147353269E-17 ) ) ;
#64 = DIRECTION ( 'NONE',  ( 0.0000000000000000000, 1.000000000000000000, 0.0000000000000000000 ) ) ;
#65 = DIRECTION ( 'NONE',  ( 1.000000000000000000, 0.0000000000000000000, 0.0000000000000000000 ) ) ;
#66 = CARTESIAN_POINT ( 'NONE',  ( 5.428441773134818840E-15, -4.495152853444868960E-16, 1.554767517369426200 ) ) ;
#67 =( LENGTH_UNIT ( ) NAMED_UNIT ( * ) SI_UNIT ( .MILLI., .METRE. ) );
#68 = DIRECTION ( 'NONE',  ( 4.275831445896959482E-31, 1.000000000000000000, 1.224646799147353207E-16 ) ) ;
#69 = CIRCLE ( 'NONE', #132, 0.7500000000000000000 ) ;
#70 = APPROVAL_PERSON_ORGANIZATION ( #74, #186, #204 ) ;
#71 = CARTESIAN_POINT ( 'NONE',  ( 1.983837810246228641E-14, -6.958366345301815590E-16, 5.681937314617162116 ) ) ;
#72 = PERSON_AND_ORGANIZATION_ROLE ( 'classification_officer' ) ;
#73 = ORIENTED_EDGE ( 'NONE', *, *, #57, .T. ) ;
#74 = PERSON_AND_ORGANIZATION ( #131, #202 ) ;
#75 = CC_DESIGN_PERSON_AND_ORGANIZATION_ASSIGNMENT ( #53, #163, ( #213 ) ) ;
#76 = EDGE_LOOP ( 'NONE', ( #238 ) ) ;
#77 = COORDINATED_UNIVERSAL_TIME_OFFSET ( 1, 0, .AHEAD. ) ;
#78 = AXIS2_PLACEMENT_3D ( 'NONE', #56, #112, #130 ) ;
#79 = CC_DESIGN_APPROVAL ( #186, ( #213 ) ) ;
#80 = APPROVAL ( #11, 'UNSPECIFIED' ) ;
#81 = ADVANCED_FACE ( 'NONE', ( #198, #237 ), #219, .T. ) ;
#82 = DIRECTION ( 'NONE',  ( -3.491481338843133355E-15, 1.224646799147353207E-16, -1.000000000000000000 ) ) ;
#83 = DIRECTION ( 'NONE',  ( -3.491481338843133355E-15, 1.224646799147353207E-16, -1.000000000000000000 ) ) ;
#84 = EDGE_LOOP ( 'NONE', ( #205 ) ) ;
#85 = VERTEX_POINT ( 'NONE', #216 ) ;
#86 = APPROVAL_ROLE ( '' ) ;
#87 = PLANE ( 'NONE',  #58 ) ;
#88 = DIRECTION ( 'NONE',  ( 0.0000000000000000000, 1.000000000000000000, 0.0000000000000000000 ) ) ;
#89 = PRODUCT_DEFINITION_SHAPE ( 'NONE', 'NONE',  #10 ) ;
#90 = CC_DESIGN_APPROVAL ( #80, ( #10 ) ) ;
#91 = ORIENTED_EDGE ( 'NONE', *, *, #55, .T. ) ;
#92 = PERSON_AND_ORGANIZATION_ROLE ( 'creator' ) ;
#93 = EDGE_LOOP ( 'NONE', ( #73 ) ) ;
#94 = CALENDAR_DATE ( 2021, 24, 11 ) ;
#95 = ADVANCED_FACE ( 'NONE', ( #12 ), #13, .F. ) ;
#96 = FACE_OUTER_BOUND ( 'NONE', #18, .T. ) ;
#97 = CC_DESIGN_APPROVAL ( #233, ( #143 ) ) ;
#98 = ADVANCED_FACE ( 'NONE', ( #218 ), #87, .T. ) ;
#99 = AXIS2_PLACEMENT_3D ( 'NONE', #138, #114, #41 ) ;
#100 = VERTEX_POINT ( 'NONE', #194 ) ;
#101 = DIRECTION ( 'NONE',  ( -3.491481338843133355E-15, 1.224646799147353207E-16, -1.000000000000000000 ) ) ;
#102 = AXIS2_PLACEMENT_3D ( 'NONE', #50, #30, #68 ) ;
#103 = VERTEX_POINT ( 'NONE', #46 ) ;
#104 = PERSON_AND_ORGANIZATION_ROLE ( 'design_owner' ) ;
#105 = DIRECTION ( 'NONE',  ( -3.491481338843133355E-15, 1.224646799147353207E-16, -1.000000000000000000 ) ) ;
#106 = CARTESIAN_POINT ( 'NONE',  ( 5.428441773134818840E-15, -1.904041063564744771E-16, 1.554767517369426200 ) ) ;
#107 = APPROVAL_PERSON_ORGANIZATION ( #179, #80, #86 ) ;
#108 = APPROVAL_DATE_TIME ( #34, #186 ) ;
#109 = EDGE_LOOP ( 'NONE', ( #203 ) ) ;
#110 = SECURITY_CLASSIFICATION_LEVEL ( 'unclassified' ) ;
#111 = EDGE_LOOP ( 'NONE', ( #187 ) ) ;
#112 = DIRECTION ( 'NONE',  ( -3.491481338843133355E-15, 1.224646799147353207E-16, -1.000000000000000000 ) ) ;
#113 = CC_DESIGN_DATE_AND_TIME_ASSIGNMENT ( #165, #17, ( #10 ) ) ;
#114 = DIRECTION ( 'NONE',  ( -3.491481338843133355E-15, 1.224646799147353207E-16, -1.000000000000000000 ) ) ;
#115 = CONICAL_SURFACE ( 'NONE', #78, 1.200000000000003286, 0.7853981633974453924 ) ;
#116 = AXIS2_PLACEMENT_3D ( 'NONE', #206, #188, #20 ) ;
#117 = VERTEX_POINT ( 'NONE', #153 ) ;
#118 = CARTESIAN_POINT ( 'NONE',  ( 1.316288464743861212E-13, -4.616918432785521081E-15, 37.69999999999999574 ) ) ;
#119 =( NAMED_UNIT ( * ) SI_UNIT ( $, .STERADIAN. ) SOLID_ANGLE_UNIT ( ) );
#120 = CARTESIAN_POINT ( 'NONE',  ( 1.983837810246228641E-14, 1.499999999999996225, 5.681937314617162116 ) ) ;
#121 = CARTESIAN_POINT ( 'NONE',  ( 0.0000000000000000000, 0.0000000000000000000, 0.0000000000000000000 ) ) ;
#122 = PLANE ( 'NONE',  #192 ) ;
#123 = EDGE_CURVE ( 'NONE', #158, #158, #134, .T. ) ;
#124 = TOROIDAL_SURFACE ( 'NONE', #9, 8.750000000000000000, 8.000000000000000000 ) ;
#125 = CARTESIAN_POINT ( 'NONE',  ( -2.137915722948479358E-32, 7.498798913309288894E-34, -6.123233995736766344E-18 ) ) ;
#126 = PERSON_AND_ORGANIZATION ( #131, #202 ) ;
#127 = EDGE_LOOP ( 'NONE', ( #91 ) ) ;
#128 = CALENDAR_DATE ( 2021, 24, 11 ) ;
#129 = ORIENTED_EDGE ( 'NONE', *, *, #57, .F. ) ;
#130 = DIRECTION ( 'NONE',  ( 0.0000000000000000000, 1.000000000000000000, 0.0000000000000000000 ) ) ;
#131 = PERSON ( 'UNSPECIFIED', 'UNSPECIFIED', 'UNSPECIFIED', ('UNSPECIFIED'), ('UNSPECIFIED'), ('UNSPECIFIED') ) ;
#132 = AXIS2_PLACEMENT_3D ( 'NONE', #106, #181, #88 ) ;
#133 = EDGE_CURVE ( 'NONE', #103, #103, #69, .T. ) ;
#134 = CIRCLE ( 'NONE', #173, 1.499999999999996669 ) ;
#135 = COORDINATED_UNIVERSAL_TIME_OFFSET ( 1, 0, .AHEAD. ) ;
#136 = DIRECTION ( 'NONE',  ( 4.355100981429076768E-31, 1.000000000000000000, 1.224646799147353207E-16 ) ) ;
#137 = DIRECTION ( 'NONE',  ( -3.491481338843133355E-15, 1.224646799147353207E-16, -1.000000000000000000 ) ) ;
#138 = CARTESIAN_POINT ( 'NONE',  ( 8.030407079339206717E-15, -2.816687638038912056E-16, 2.299999999999999822 ) ) ;
#139 = APPLICATION_PROTOCOL_DEFINITION ( 'international standard', 'config_control_design', 1994, #182 ) ;
#140 = DIRECTION ( 'NONE',  ( 3.491481338843133355E-15, -1.224646799147353207E-16, 1.000000000000000000 ) ) ;
#141 = DIRECTION ( 'NONE',  ( 0.0000000000000000000, 1.000000000000000000, 0.0000000000000000000 ) ) ;
#142 = AXIS2_PLACEMENT_3D ( 'NONE', #63, #137, #214 ) ;
#143 = SECURITY_CLASSIFICATION ( '', '', #110 ) ;
#144 = ADVANCED_FACE ( 'NONE', ( #47 ), #122, .F. ) ;
#145 = APPROVAL_STATUS ( 'not_yet_approved' ) ;
#146 = ORIENTED_EDGE ( 'NONE', *, *, #14, .F. ) ;
#147 = PERSON_AND_ORGANIZATION_ROLE ( 'design_supplier' ) ;
#148 = AXIS2_PLACEMENT_3D ( 'NONE', #121, #27, #65 ) ;
#149 = ORIENTED_EDGE ( 'NONE', *, *, #55, .F. ) ;
#150 = CARTESIAN_POINT ( 'NONE',  ( -3.206873584422719174E-32, 0.02499999999999999792, -9.184850993605148746E-18 ) ) ;
#151 = ADVANCED_FACE ( 'NONE', ( #96, #223 ), #115, .T. ) ;
#152 = DATE_AND_TIME ( #208, #207 ) ;
#153 = CARTESIAN_POINT ( 'NONE',  ( 1.326762908760390423E-13, 1.199999999999998845, 38.00000000000000000 ) ) ;
#154 = DIRECTION ( 'NONE',  ( -4.275831445896960358E-31, -1.000000000000000000, -1.224646799147352714E-16 ) ) ;
#155 = FACE_OUTER_BOUND ( 'NONE', #240, .T. ) ;
#156 = AXIS2_PLACEMENT_3D ( 'NONE', #118, #26, #141 ) ;
#157 =( NAMED_UNIT ( * ) PLANE_ANGLE_UNIT ( ) SI_UNIT ( $, .RADIAN. ) );
#158 = VERTEX_POINT ( 'NONE', #120 ) ;
#159 = COORDINATED_UNIVERSAL_TIME_OFFSET ( 1, 0, .AHEAD. ) ;
#160 = DIRECTION ( 'NONE',  ( 3.491481338843133355E-15, -1.224646799147353207E-16, 1.000000000000000000 ) ) ;
#161 = DIRECTION ( 'NONE',  ( -4.275831445896958607E-31, -1.000000000000000000, -1.224646799147353207E-16 ) ) ;
#162 = EDGE_LOOP ( 'NONE', ( #177 ) ) ;
#163 = PERSON_AND_ORGANIZATION_ROLE ( 'creator' ) ;
#164 = EDGE_LOOP ( 'NONE', ( #146 ) ) ;
#165 = DATE_AND_TIME ( #128, #174 ) ;
#166 = AXIS2_PLACEMENT_3D ( 'NONE', #231, #83, #64 ) ;
#167 =( GEOMETRIC_REPRESENTATION_CONTEXT ( 3 ) GLOBAL_UNCERTAINTY_ASSIGNED_CONTEXT ( ( #210 ) ) GLOBAL_UNIT_ASSIGNED_CONTEXT ( ( #67, #157, #119 ) ) REPRESENTATION_CONTEXT ( 'NONE', 'WORKASPACE' ) );
#168 = CC_DESIGN_DATE_AND_TIME_ASSIGNMENT ( #51, #241, ( #143 ) ) ;
#169 = FACE_OUTER_BOUND ( 'NONE', #84, .T. ) ;
#170 = EDGE_CURVE ( 'NONE', #234, #234, #224, .T. ) ;
#171 = APPROVAL_DATE_TIME ( #152, #233 ) ;
#172 = CIRCLE ( 'NONE', #99, 0.7500000000000009992 ) ;
#173 = AXIS2_PLACEMENT_3D ( 'NONE', #71, #236, #31 ) ;
#174 = LOCAL_TIME ( 7, 51, 39.00000000000000000, #77 ) ;
#175 = CARTESIAN_POINT ( 'NONE',  ( 5.428441773134818840E-15, -4.495152853444868960E-16, 1.554767517369426200 ) ) ;
#176 = ORIENTED_EDGE ( 'NONE', *, *, #123, .F. ) ;
#177 = ORIENTED_EDGE ( 'NONE', *, *, #133, .F. ) ;
#178 = PERSON_AND_ORGANIZATION ( #131, #202 ) ;
#179 = PERSON_AND_ORGANIZATION ( #131, #202 ) ;
#180 = CARTESIAN_POINT ( 'NONE',  ( 1.326762908760390423E-13, 8.998558695971103225E-33, 38.00000000000000000 ) ) ;
#181 = DIRECTION ( 'NONE',  ( -3.491481338843133355E-15, 1.224646799147353207E-16, -1.000000000000000000 ) ) ;
#182 = APPLICATION_CONTEXT ( 'configuration controlled 3d designs of mechanical parts and assemblies' ) ;
#183 = PERSON_AND_ORGANIZATION ( #131, #202 ) ;
#184 = ORIENTED_EDGE ( 'NONE', *, *, #40, .F. ) ;
#185 = PERSON_AND_ORGANIZATION ( #131, #202 ) ;
#186 = APPROVAL ( #145, 'UNSPECIFIED' ) ;
#187 = ORIENTED_EDGE ( 'NONE', *, *, #170, .T. ) ;
#188 = DIRECTION ( 'NONE',  ( -3.491481338843133355E-15, 1.224646799147353207E-16, -1.000000000000000000 ) ) ;
#189 = MANIFOLD_SOLID_BREP ( 'Corps-Déplacer/Copier1[1]', #29 ) ;
#190 = DESIGN_CONTEXT ( 'detailed design', #61, 'design' ) ;
#191 = CC_DESIGN_PERSON_AND_ORGANIZATION_ASSIGNMENT ( #178, #104, ( #229 ) ) ;
#192 = AXIS2_PLACEMENT_3D ( 'NONE', #180, #105, #38 ) ;
#193 = FACE_OUTER_BOUND ( 'NONE', #35, .T. ) ;
#194 = CARTESIAN_POINT ( 'NONE',  ( 8.030407079339206717E-15, 0.7500000000000006661, 2.299999999999999822 ) ) ;
#195 = DIRECTION ( 'NONE',  ( 3.491481338843133355E-15, -1.224646799147353207E-16, 1.000000000000000000 ) ) ;
#196 = CARTESIAN_POINT ( 'NONE',  ( 5.428441773134818840E-15, 0.7499999999999997780, 1.554767517369426200 ) ) ;
#197 = CIRCLE ( 'NONE', #166, 1.200000000000003286 ) ;
#198 = FACE_OUTER_BOUND ( 'NONE', #7, .T. ) ;
#199 = DIRECTION ( 'NONE',  ( -4.275831445896958607E-31, -1.000000000000000000, -1.224646799147353207E-16 ) ) ;
#200 = COORDINATED_UNIVERSAL_TIME_OFFSET ( 1, 0, .AHEAD. ) ;
#201 = CONICAL_SURFACE ( 'NONE', #22, 0.02499999999999999792, 0.4363323129985833271 ) ;
#202 = ORGANIZATION ( 'UNSPECIFIED', 'UNSPECIFIED', '' ) ;
#203 = ORIENTED_EDGE ( 'NONE', *, *, #170, .F. ) ;
#204 = APPROVAL_ROLE ( '' ) ;
#205 = ORIENTED_EDGE ( 'NONE', *, *, #123, .T. ) ;
#206 = CARTESIAN_POINT ( 'NONE',  ( 5.428441773134818840E-15, -1.904041063564744771E-16, 1.554767517369426200 ) ) ;
#207 = LOCAL_TIME ( 7, 51, 39.00000000000000000, #135 ) ;
#208 = CALENDAR_DATE ( 2021, 24, 11 ) ;
#209 = CC_DESIGN_PERSON_AND_ORGANIZATION_ASSIGNMENT ( #183, #92, ( #10 ) ) ;
#210 = UNCERTAINTY_MEASURE_WITH_UNIT (LENGTH_MEASURE( 1.000000000000000082E-05 ), #67, 'distance_accuracy_value', 'NONE');
#211 = ADVANCED_FACE ( 'NONE', ( #169, #243 ), #124, .F. ) ;
#212 = FACE_OUTER_BOUND ( 'NONE', #111, .T. ) ;
#213 = PRODUCT_DEFINITION_FORMATION_WITH_SPECIFIED_SOURCE ( 'ANY', '', #229, .NOT_KNOWN. ) ;
#214 = DIRECTION ( 'NONE',  ( 4.275831445896957731E-31, 1.000000000000000000, 1.224646799147353454E-16 ) ) ;
#215 = FACE_OUTER_BOUND ( 'NONE', #109, .T. ) ;
#216 = CARTESIAN_POINT ( 'NONE',  ( 1.316288464743861212E-13, 1.499999999999998668, 37.69999999999999574 ) ) ;
#217 = MECHANICAL_CONTEXT ( 'NONE', #182, 'mechanical' ) ;
#218 = FACE_OUTER_BOUND ( 'NONE', #162, .T. ) ;
#219 = CYLINDRICAL_SURFACE ( 'NONE', #102, 1.500000000000000000 ) ;
#220 = COORDINATED_UNIVERSAL_TIME_OFFSET ( 1, 0, .AHEAD. ) ;
#221 = EDGE_LOOP ( 'NONE', ( #149 ) ) ;
#222 = CALENDAR_DATE ( 2021, 24, 11 ) ;
#223 = FACE_BOUND ( 'NONE', #76, .T. ) ;
#224 = CIRCLE ( 'NONE', #116, 0.7500000000000000000 ) ;
#225 = APPROVAL_STATUS ( 'not_yet_approved' ) ;
#226 = CC_DESIGN_PERSON_AND_ORGANIZATION_ASSIGNMENT ( #185, #72, ( #143 ) ) ;
#227 = CC_DESIGN_SECURITY_CLASSIFICATION ( #143, ( #213 ) ) ;
#228 = ADVANCED_FACE ( 'NONE', ( #212 ), #42, .F. ) ;
#229 = PRODUCT ( '976258', '976258', '', ( #217 ) ) ;
#230 = CARTESIAN_POINT ( 'NONE',  ( 8.030407079339206717E-15, 0.0000000000000000000, 2.299999999999999822 ) ) ;
#231 = CARTESIAN_POINT ( 'NONE',  ( 1.326762908760390423E-13, -4.653657836759941941E-15, 38.00000000000000000 ) ) ;
#232 = DIRECTION ( 'NONE',  ( 4.275831445896958607E-31, 1.000000000000000000, 1.224646799147353207E-16 ) ) ;
#233 = APPROVAL ( #225, 'UNSPECIFIED' ) ;
#234 = VERTEX_POINT ( 'NONE', #196 ) ;
#235 = CALENDAR_DATE ( 2021, 24, 11 ) ;
#236 = DIRECTION ( 'NONE',  ( -3.491481338843133355E-15, 1.224646799147353207E-16, -1.000000000000000000 ) ) ;
#237 = FACE_OUTER_BOUND ( 'NONE', #93, .T. ) ;
#238 = ORIENTED_EDGE ( 'NONE', *, *, #14, .T. ) ;
#239 = PERSON_AND_ORGANIZATION ( #131, #202 ) ;
#240 = EDGE_LOOP ( 'NONE', ( #16 ) ) ;
#241 = DATE_TIME_ROLE ( 'classification_date' ) ;
#242 = AXIS2_PLACEMENT_3D ( 'NONE', #125, #140, #199 ) ;
#243 = FACE_OUTER_BOUND ( 'NONE', #54, .T. ) ;
ENDSEC;
END-ISO-10303-21;
