ISO-10303-21;
HEADER;
FILE_DESCRIPTION (( 'STEP AP203' ),
    '1' );
FILE_NAME ('976176.step',
    '2021-12-01T14:04:30',
    ( '' ),
    ( '' ),
    'SwSTEP 2.0',
    'SolidWorks 2019',
    '' );
FILE_SCHEMA (( 'CONFIG_CONTROL_DESIGN' ));
ENDSEC;

DATA;
#1 = APPLICATION_PROTOCOL_DEFINITION ( 'international standard', 'config_control_design', 1994, #168 ) ;
#2 = CARTESIAN_POINT ( 'NONE',  ( 2.444036937190193349E-14, 0.7799999999999990274, 7.000000000000000000 ) ) ;
#3 = AXIS2_PLACEMENT_3D ( 'NONE', #283, #141, #49 ) ;
#4 = PRODUCT_RELATED_PRODUCT_CATEGORY ( 'detail', '', ( #177 ) ) ;
#5 = EDGE_LOOP ( 'NONE', ( #152 ) ) ;
#6 = DIRECTION ( 'NONE',  ( -3.491481338843133355E-15, 1.224646799147353207E-16, -1.000000000000000000 ) ) ;
#7 = PERSON_AND_ORGANIZATION ( #55, #122 ) ;
#8 = EDGE_LOOP ( 'NONE', ( #273 ) ) ;
#9 = PERSON_AND_ORGANIZATION ( #55, #122 ) ;
#10 = APPROVAL ( #102, 'UNSPECIFIED' ) ;
#11 = AXIS2_PLACEMENT_3D ( 'NONE', #112, #166, #113 ) ;
#12 = PERSON_AND_ORGANIZATION_ROLE ( 'design_supplier' ) ;
#13 = APPLICATION_CONTEXT ( 'configuration controlled 3d designs of mechanical parts and assemblies' ) ;
#14 = CIRCLE ( 'NONE', #186, 0.7799999999999999156 ) ;
#15 = DIRECTION ( 'NONE',  ( 0.0000000000000000000, 0.0000000000000000000, 1.000000000000000000 ) ) ;
#16 = DIRECTION ( 'NONE',  ( 4.275831445896958607E-31, 1.000000000000000000, 1.224646799147353207E-16 ) ) ;
#17 = DIRECTION ( 'NONE',  ( 3.491481338843133355E-15, -1.224646799147353207E-16, 1.000000000000000000 ) ) ;
#18 = FACE_BOUND ( 'NONE', #271, .T. ) ;
#19 = CC_DESIGN_PERSON_AND_ORGANIZATION_ASSIGNMENT ( #161, #148, ( #177 ) ) ;
#20 = CARTESIAN_POINT ( 'NONE',  ( 5.358479882634335789E-14, -1.879501735712543302E-15, 15.34729635533384595 ) ) ;
#21 = DIRECTION ( 'NONE',  ( -3.491481338843133355E-15, 1.224646799147353207E-16, -1.000000000000000000 ) ) ;
#22 = PERSON_AND_ORGANIZATION ( #55, #122 ) ;
#23 = APPROVAL_DATE_TIME ( #174, #50 ) ;
#24 = APPROVAL_ROLE ( '' ) ;
#25 = ADVANCED_FACE ( 'NONE', ( #253, #134 ), #68, .T. ) ;
#26 = CIRCLE ( 'NONE', #11, 0.6356624327025947041 ) ;
#27 = ORIENTED_EDGE ( 'NONE', *, *, #146, .F. ) ;
#28 = ORIENTED_EDGE ( 'NONE', *, *, #247, .F. ) ;
#29 = CC_DESIGN_PERSON_AND_ORGANIZATION_ASSIGNMENT ( #9, #235, ( #85 ) ) ;
#30 = ORIENTED_EDGE ( 'NONE', *, *, #123, .T. ) ;
#31 = DATE_AND_TIME ( #290, #208 ) ;
#32 = ORIENTED_EDGE ( 'NONE', *, *, #182, .T. ) ;
#33 = APPROVAL_PERSON_ORGANIZATION ( #147, #10, #24 ) ;
#34 = VERTEX_POINT ( 'NONE', #2 ) ;
#35 = APPROVAL_ROLE ( '' ) ;
#36 = CARTESIAN_POINT ( 'NONE',  ( 5.237222008264700033E-14, 0.6799999999999978284, 15.00000000000000000 ) ) ;
#37 = FACE_OUTER_BOUND ( 'NONE', #231, .T. ) ;
#38 = ADVANCED_FACE ( 'NONE', ( #298 ), #82, .F. ) ;
#39 = FACE_OUTER_BOUND ( 'NONE', #246, .T. ) ;
#40 = CIRCLE ( 'NONE', #3, 1.499999999999996447 ) ;
#41 = APPLICATION_PROTOCOL_DEFINITION ( 'international standard', 'config_control_design', 1994, #13 ) ;
#42 = DIRECTION ( 'NONE',  ( 1.000000000000000000, 0.0000000000000000000, 0.0000000000000000000 ) ) ;
#43 = CARTESIAN_POINT ( 'NONE',  ( 1.745740669421566678E-13, -6.123233995736766085E-15, 50.00000000000000000 ) ) ;
#44 = DATE_AND_TIME ( #130, #125 ) ;
#45 = CC_DESIGN_PERSON_AND_ORGANIZATION_ASSIGNMENT ( #202, #124, ( #155 ) ) ;
#46 = VERTEX_POINT ( 'NONE', #200 ) ;
#47 = FACE_OUTER_BOUND ( 'NONE', #178, .T. ) ;
#48 = DIRECTION ( 'NONE',  ( 3.491481338843133355E-15, -1.224646799147353207E-16, 1.000000000000000000 ) ) ;
#49 = DIRECTION ( 'NONE',  ( 0.0000000000000000000, 1.000000000000000000, 0.0000000000000000000 ) ) ;
#50 = APPROVAL ( #175, 'UNSPECIFIED' ) ;
#51 = CIRCLE ( 'NONE', #151, 0.6799999999999987166 ) ;
#52 = AXIS2_PLACEMENT_3D ( 'NONE', #300, #48, #280 ) ;
#53 = APPROVAL_PERSON_ORGANIZATION ( #139, #223, #35 ) ;
#54 = ADVANCED_FACE ( 'NONE', ( #80, #47 ), #240, .T. ) ;
#55 = PERSON ( 'UNSPECIFIED', 'UNSPECIFIED', 'UNSPECIFIED', ('UNSPECIFIED'), ('UNSPECIFIED'), ('UNSPECIFIED') ) ;
#56 = CONICAL_SURFACE ( 'NONE', #104, 0.6799999999999987166, 0.5235987755982960401 ) ;
#57 = ADVANCED_FACE ( 'NONE', ( #39 ), #66, .T. ) ;
#58 = DIRECTION ( 'NONE',  ( -3.491481338843133355E-15, 1.224646799147353207E-16, -1.000000000000000000 ) ) ;
#59 = DIRECTION ( 'NONE',  ( 3.491481338843133355E-15, -1.224646799147353207E-16, 1.000000000000000000 ) ) ;
#60 = CARTESIAN_POINT ( 'NONE',  ( 2.504511167915743435E-14, -8.784642641776457383E-16, 7.173205080756891228 ) ) ;
#61 = CARTESIAN_POINT ( 'NONE',  ( 2.444036937190193349E-14, -8.572527594031473190E-16, 7.000000000000000000 ) ) ;
#62 = CIRCLE ( 'NONE', #279, 0.7799999999999990274 ) ;
#63 =( LENGTH_UNIT ( ) NAMED_UNIT ( * ) SI_UNIT ( .MILLI., .METRE. ) );
#64 = DIRECTION ( 'NONE',  ( 3.491481338843133355E-15, -1.224646799147353207E-16, 1.000000000000000000 ) ) ;
#65 = DATE_TIME_ROLE ( 'creation_date' ) ;
#66 = PLANE ( 'NONE',  #115 ) ;
#67 = FACE_OUTER_BOUND ( 'NONE', #207, .T. ) ;
#68 = CONICAL_SURFACE ( 'NONE', #52, 0.7799999999999990274, 0.5235987755982923764 ) ;
#69 = CALENDAR_DATE ( 2021, 1, 12 ) ;
#70 = CALENDAR_DATE ( 2021, 1, 12 ) ;
#71 = DIRECTION ( 'NONE',  ( 0.0000000000000000000, 1.000000000000000000, 0.0000000000000000000 ) ) ;
#72 = ADVANCED_FACE ( 'NONE', ( #170 ), #261, .F. ) ;
#73 = DATE_AND_TIME ( #135, #201 ) ;
#74 = ORIENTED_EDGE ( 'NONE', *, *, #284, .F. ) ;
#75 = AXIS2_PLACEMENT_3D ( 'NONE', #278, #188, #215 ) ;
#76 = APPROVAL_PERSON_ORGANIZATION ( #22, #50, #203 ) ;
#77 = EDGE_LOOP ( 'NONE', ( #32 ) ) ;
#78 = ORIENTED_EDGE ( 'NONE', *, *, #268, .F. ) ;
#79 = EDGE_LOOP ( 'NONE', ( #30 ) ) ;
#80 = FACE_OUTER_BOUND ( 'NONE', #179, .T. ) ;
#81 = LOCAL_TIME ( 15, 4, 30.00000000000000000, #288 ) ;
#82 = PLANE ( 'NONE',  #129 ) ;
#83 = CARTESIAN_POINT ( 'NONE',  ( 2.444036937190193349E-14, 5.849063152381231260E-33, 7.000000000000000000 ) ) ;
#84 = DIRECTION ( 'NONE',  ( 4.275831445896958607E-31, 1.000000000000000000, 1.224646799147353207E-16 ) ) ;
#85 = SECURITY_CLASSIFICATION ( '', '', #136 ) ;
#86 = APPROVAL_DATE_TIME ( #44, #10 ) ;
#87 = DIRECTION ( 'NONE',  ( 3.491481338843133355E-15, -1.224646799147353207E-16, 1.000000000000000000 ) ) ;
#88 = PLANE ( 'NONE',  #292 ) ;
#89 = MANIFOLD_SOLID_BREP ( 'Corps-Déplacer/Copier1[2]', #176 ) ;
#90 = SHAPE_DEFINITION_REPRESENTATION ( #260, #194 ) ;
#91 = ADVANCED_FACE ( 'NONE', ( #142, #18 ), #224, .T. ) ;
#92 = CARTESIAN_POINT ( 'NONE',  ( 1.735266225405037467E-13, 1.499999999999995559, 49.70000000000000284 ) ) ;
#93 = AXIS2_PLACEMENT_3D ( 'NONE', #43, #255, #196 ) ;
#94 =( NAMED_UNIT ( * ) SI_UNIT ( $, .STERADIAN. ) SOLID_ANGLE_UNIT ( ) );
#95 = CARTESIAN_POINT ( 'NONE',  ( 1.745740669421566678E-13, 1.199999999999995515, 50.00000000000000000 ) ) ;
#96 = ADVANCED_FACE ( 'NONE', ( #143, #259 ), #164, .T. ) ;
#97 = COORDINATED_UNIVERSAL_TIME_OFFSET ( 1, 0, .AHEAD. ) ;
#98 = UNCERTAINTY_MEASURE_WITH_UNIT (LENGTH_MEASURE( 1.000000000000000082E-05 ), #63, 'distance_accuracy_value', 'NONE');
#99 = CC_DESIGN_APPROVAL ( #223, ( #232 ) ) ;
#100 = EDGE_CURVE ( 'NONE', #217, #217, #256, .T. ) ;
#101 = CARTESIAN_POINT ( 'NONE',  ( 0.0000000000000000000, 0.0000000000000000000, 0.0000000000000000000 ) ) ;
#102 = APPROVAL_STATUS ( 'not_yet_approved' ) ;
#103 = AXIS2_PLACEMENT_3D ( 'NONE', #297, #59, #276 ) ;
#104 = AXIS2_PLACEMENT_3D ( 'NONE', #302, #21, #145 ) ;
#105 = EDGE_LOOP ( 'NONE', ( #249 ) ) ;
#106 = PERSON_AND_ORGANIZATION ( #55, #122 ) ;
#107 = CC_DESIGN_PERSON_AND_ORGANIZATION_ASSIGNMENT ( #106, #12, ( #232 ) ) ;
#108 = CARTESIAN_POINT ( 'NONE',  ( 0.0000000000000000000, 0.0000000000000000000, 0.0000000000000000000 ) ) ;
#109 = PERSON_AND_ORGANIZATION_ROLE ( 'creator' ) ;
#110 = CARTESIAN_POINT ( 'NONE',  ( 5.237222008264700033E-14, -1.734723475976807094E-15, 15.00000000000000000 ) ) ;
#111 = TOROIDAL_SURFACE ( 'NONE', #116, 2.679999999999999716, 2.000000000000000444 ) ;
#112 = CARTESIAN_POINT ( 'NONE',  ( -4.610721245108274295E-31, 1.617223311997840812E-32, -1.320563049790204610E-16 ) ) ;
#113 = DIRECTION ( 'NONE',  ( 4.275831445896959482E-31, 1.000000000000000000, 1.224646799147353207E-16 ) ) ;
#114 = CARTESIAN_POINT ( 'NONE',  ( 0.0000000000000000000, 0.0000000000000000000, 0.0000000000000000000 ) ) ;
#115 = AXIS2_PLACEMENT_3D ( 'NONE', #192, #64, #171 ) ;
#116 = AXIS2_PLACEMENT_3D ( 'NONE', #110, #238, #16 ) ;
#117 =( NAMED_UNIT ( * ) PLANE_ANGLE_UNIT ( ) SI_UNIT ( $, .RADIAN. ) );
#118 = DIRECTION ( 'NONE',  ( 0.0000000000000000000, 1.000000000000000000, 0.0000000000000000000 ) ) ;
#119 = ADVANCED_FACE ( 'NONE', ( #295, #138 ), #243, .T. ) ;
#120 = COORDINATED_UNIVERSAL_TIME_OFFSET ( 1, 0, .AHEAD. ) ;
#121 = AXIS2_PLACEMENT_3D ( 'NONE', #114, #218, #137 ) ;
#122 = ORGANIZATION ( 'UNSPECIFIED', 'UNSPECIFIED', '' ) ;
#123 = EDGE_CURVE ( 'NONE', #282, #282, #62, .T. ) ;
#124 = PERSON_AND_ORGANIZATION_ROLE ( 'creator' ) ;
#125 = LOCAL_TIME ( 15, 4, 30.00000000000000000, #120 ) ;
#126 = EDGE_LOOP ( 'NONE', ( #181 ) ) ;
#127 = ORIENTED_EDGE ( 'NONE', *, *, #195, .T. ) ;
#128 = DATE_TIME_ROLE ( 'classification_date' ) ;
#129 = AXIS2_PLACEMENT_3D ( 'NONE', #83, #17, #190 ) ;
#130 = CALENDAR_DATE ( 2021, 1, 12 ) ;
#131 = AXIS2_PLACEMENT_3D ( 'NONE', #101, #15, #42 ) ;
#132 = FACE_OUTER_BOUND ( 'NONE', #8, .T. ) ;
#133 = VERTEX_POINT ( 'NONE', #92 ) ;
#134 = FACE_OUTER_BOUND ( 'NONE', #79, .T. ) ;
#135 = CALENDAR_DATE ( 2021, 1, 12 ) ;
#136 = SECURITY_CLASSIFICATION_LEVEL ( 'unclassified' ) ;
#137 = DIRECTION ( 'NONE',  ( 4.275831445896958607E-31, 1.000000000000000000, 1.224646799147353454E-16 ) ) ;
#138 = FACE_OUTER_BOUND ( 'NONE', #293, .T. ) ;
#139 = PERSON_AND_ORGANIZATION ( #55, #122 ) ;
#140 = MECHANICAL_CONTEXT ( 'NONE', #13, 'mechanical' ) ;
#141 = DIRECTION ( 'NONE',  ( -3.491481338843133355E-15, 1.224646799147353207E-16, -1.000000000000000000 ) ) ;
#142 = FACE_OUTER_BOUND ( 'NONE', #154, .T. ) ;
#143 = FACE_OUTER_BOUND ( 'NONE', #209, .T. ) ;
#144 = CC_DESIGN_SECURITY_CLASSIFICATION ( #85, ( #232 ) ) ;
#145 = DIRECTION ( 'NONE',  ( 0.0000000000000000000, 1.000000000000000000, 0.0000000000000000000 ) ) ;
#146 = EDGE_CURVE ( 'NONE', #34, #34, #14, .T. ) ;
#147 = PERSON_AND_ORGANIZATION ( #55, #122 ) ;
#148 = PERSON_AND_ORGANIZATION_ROLE ( 'design_owner' ) ;
#149 = ADVANCED_FACE ( 'NONE', ( #37, #220 ), #111, .F. ) ;
#150 = AXIS2_PLACEMENT_3D ( 'NONE', #241, #87, #277 ) ;
#151 = AXIS2_PLACEMENT_3D ( 'NONE', #60, #165, #71 ) ;
#152 = ORIENTED_EDGE ( 'NONE', *, *, #284, .T. ) ;
#153 = CARTESIAN_POINT ( 'NONE',  ( 1.735266225405037467E-13, -6.086494591762345225E-15, 49.70000000000000284 ) ) ;
#154 = EDGE_LOOP ( 'NONE', ( #78 ) ) ;
#155 = PRODUCT_DEFINITION ( 'UNKNOWN', '', #232, #227 ) ;
#156 = ORIENTED_EDGE ( 'NONE', *, *, #163, .F. ) ;
#157 = CYLINDRICAL_SURFACE ( 'NONE', #219, 0.6799999999999991607 ) ;
#158 = CARTESIAN_POINT ( 'NONE',  ( 6.922011335999250184E-14, 1.499999999999994005, 19.82542841913853238 ) ) ;
#159 = EDGE_LOOP ( 'NONE', ( #294 ) ) ;
#160 = COORDINATED_UNIVERSAL_TIME_OFFSET ( 1, 0, .AHEAD. ) ;
#161 = PERSON_AND_ORGANIZATION ( #55, #122 ) ;
#162 = DIRECTION ( 'NONE',  ( 4.938281908685226020E-31, 1.000000000000000000, 1.390002785237827854E-16 ) ) ;
#163 = EDGE_CURVE ( 'NONE', #226, #226, #263, .T. ) ;
#164 = CYLINDRICAL_SURFACE ( 'NONE', #121, 1.499999999999998890 ) ;
#165 = DIRECTION ( 'NONE',  ( -3.491481338843133355E-15, 1.224646799147353207E-16, -1.000000000000000000 ) ) ;
#166 = DIRECTION ( 'NONE',  ( -3.491481338843133355E-15, 1.224646799147353207E-16, -1.000000000000000000 ) ) ;
#167 = APPROVAL_STATUS ( 'not_yet_approved' ) ;
#168 = APPLICATION_CONTEXT ( 'configuration controlled 3d designs of mechanical parts and assemblies' ) ;
#169 = DIRECTION ( 'NONE',  ( 4.275831445896958607E-31, 1.000000000000000000, 1.224646799147353207E-16 ) ) ;
#170 = FACE_OUTER_BOUND ( 'NONE', #77, .T. ) ;
#171 = DIRECTION ( 'NONE',  ( -4.275831445896958607E-31, -1.000000000000000000, -1.224646799147353207E-16 ) ) ;
#172 = CARTESIAN_POINT ( 'NONE',  ( 1.745740669421566678E-13, 8.998558695971067645E-33, 50.00000000000000000 ) ) ;
#173 = VERTEX_POINT ( 'NONE', #265 ) ;
#174 = DATE_AND_TIME ( #70, #81 ) ;
#175 = APPROVAL_STATUS ( 'not_yet_approved' ) ;
#176 = CLOSED_SHELL ( 'NONE', ( #72, #25, #54, #57 ) ) ;
#177 = PRODUCT ( '976176', '976176', '', ( #140 ) ) ;
#178 = EDGE_LOOP ( 'NONE', ( #212 ) ) ;
#179 = EDGE_LOOP ( 'NONE', ( #234 ) ) ;
#180 = FACE_OUTER_BOUND ( 'NONE', #210, .T. ) ;
#181 = ORIENTED_EDGE ( 'NONE', *, *, #100, .T. ) ;
#182 = EDGE_CURVE ( 'NONE', #287, #287, #26, .T. ) ;
#183 = ORIENTED_EDGE ( 'NONE', *, *, #163, .T. ) ;
#184 = DIRECTION ( 'NONE',  ( -3.491481338843133355E-15, 1.224646799147353207E-16, -1.000000000000000000 ) ) ;
#185 = APPROVAL_DATE_TIME ( #73, #223 ) ;
#186 = AXIS2_PLACEMENT_3D ( 'NONE', #61, #254, #239 ) ;
#187 = CARTESIAN_POINT ( 'NONE',  ( 8.728703347107829444E-16, -3.061616997868381785E-17, 0.2499999999999998890 ) ) ;
#188 = DIRECTION ( 'NONE',  ( -3.491481338843133355E-15, 1.224646799147353207E-16, -1.000000000000000000 ) ) ;
#189 = DIRECTION ( 'NONE',  ( 0.0000000000000000000, 1.000000000000000000, 0.0000000000000000000 ) ) ;
#190 = DIRECTION ( 'NONE',  ( -4.275831445896958607E-31, -1.000000000000000000, -1.224646799147353207E-16 ) ) ;
#191 = AXIS2_PLACEMENT_3D ( 'NONE', #211, #184, #197 ) ;
#192 = CARTESIAN_POINT ( 'NONE',  ( 2.444036937190193349E-14, 5.849063152381231260E-33, 7.000000000000000000 ) ) ;
#193 = AXIS2_PLACEMENT_3D ( 'NONE', #153, #296, #189 ) ;
#194 = ADVANCED_BREP_SHAPE_REPRESENTATION ( '976176', ( #199, #89, #131 ), #267 ) ;
#195 = EDGE_CURVE ( 'NONE', #245, #245, #40, .T. ) ;
#196 = DIRECTION ( 'NONE',  ( 0.0000000000000000000, 1.000000000000000000, 0.0000000000000000000 ) ) ;
#197 = DIRECTION ( 'NONE',  ( 0.0000000000000000000, 1.000000000000000000, 0.0000000000000000000 ) ) ;
#198 = DIRECTION ( 'NONE',  ( -3.491481338843133355E-15, 1.224646799147353207E-16, -1.000000000000000000 ) ) ;
#199 = MANIFOLD_SOLID_BREP ( 'Corps-Déplacer/Copier1[1]', #262 ) ;
#200 = CARTESIAN_POINT ( 'NONE',  ( 2.504511167915743435E-14, 0.6799999999999978284, 7.173205080756891228 ) ) ;
#201 = LOCAL_TIME ( 15, 4, 30.00000000000000000, #160 ) ;
#202 = PERSON_AND_ORGANIZATION ( #55, #122 ) ;
#203 = APPROVAL_ROLE ( '' ) ;
#204 = AXIS2_PLACEMENT_3D ( 'NONE', #242, #6, #230 ) ;
#205 = COORDINATED_UNIVERSAL_TIME_OFFSET ( 1, 0, .AHEAD. ) ;
#206 = CC_DESIGN_DATE_AND_TIME_ASSIGNMENT ( #303, #65, ( #155 ) ) ;
#207 = EDGE_LOOP ( 'NONE', ( #74 ) ) ;
#208 = LOCAL_TIME ( 15, 4, 30.00000000000000000, #205 ) ;
#209 = EDGE_LOOP ( 'NONE', ( #289 ) ) ;
#210 = EDGE_LOOP ( 'NONE', ( #229 ) ) ;
#211 = CARTESIAN_POINT ( 'NONE',  ( 2.444036937190193349E-14, -8.572527594031473190E-16, 7.000000000000000000 ) ) ;
#212 = ORIENTED_EDGE ( 'NONE', *, *, #146, .T. ) ;
#213 = ADVANCED_FACE ( 'NONE', ( #67, #285 ), #56, .T. ) ;
#214 = LOCAL_TIME ( 15, 4, 30.00000000000000000, #97 ) ;
#215 = DIRECTION ( 'NONE',  ( 0.0000000000000000000, 1.000000000000000000, 0.0000000000000000000 ) ) ;
#216 = DIRECTION ( 'NONE',  ( -3.491481338843133355E-15, 1.224646799147353207E-16, -1.000000000000000000 ) ) ;
#217 = VERTEX_POINT ( 'NONE', #221 ) ;
#218 = DIRECTION ( 'NONE',  ( -3.491481338843133355E-15, 1.224646799147353207E-16, -1.000000000000000000 ) ) ;
#219 = AXIS2_PLACEMENT_3D ( 'NONE', #108, #275, #169 ) ;
#220 = FACE_OUTER_BOUND ( 'NONE', #126, .T. ) ;
#221 = CARTESIAN_POINT ( 'NONE',  ( 5.358479882634335789E-14, 0.7103844939755782351, 15.34729635533384595 ) ) ;
#222 = FACE_OUTER_BOUND ( 'NONE', #269, .T. ) ;
#223 = APPROVAL ( #167, 'UNSPECIFIED' ) ;
#224 = CONICAL_SURFACE ( 'NONE', #75, 1.200000000000001732, 0.7853981633974453924 ) ;
#225 = CIRCLE ( 'NONE', #193, 1.500000000000001554 ) ;
#226 = VERTEX_POINT ( 'NONE', #95 ) ;
#227 = DESIGN_CONTEXT ( 'detailed design', #168, 'design' ) ;
#228 = CIRCLE ( 'NONE', #191, 0.7799999999999999156 ) ;
#229 = ORIENTED_EDGE ( 'NONE', *, *, #272, .F. ) ;
#230 = DIRECTION ( 'NONE',  ( 0.0000000000000000000, 1.000000000000000000, 0.0000000000000000000 ) ) ;
#231 = EDGE_LOOP ( 'NONE', ( #28 ) ) ;
#232 = PRODUCT_DEFINITION_FORMATION_WITH_SPECIFIED_SOURCE ( 'ANY', '', #177, .NOT_KNOWN. ) ;
#233 = ORIENTED_EDGE ( 'NONE', *, *, #182, .F. ) ;
#234 = ORIENTED_EDGE ( 'NONE', *, *, #123, .F. ) ;
#235 = PERSON_AND_ORGANIZATION_ROLE ( 'classification_officer' ) ;
#236 = CC_DESIGN_DATE_AND_TIME_ASSIGNMENT ( #31, #128, ( #85 ) ) ;
#237 = DIRECTION ( 'NONE',  ( -3.491481338843133355E-15, 1.224646799147353207E-16, -1.000000000000000000 ) ) ;
#238 = DIRECTION ( 'NONE',  ( -3.491481338843133355E-15, 1.224646799147353207E-16, -1.000000000000000000 ) ) ;
#239 = DIRECTION ( 'NONE',  ( 0.0000000000000000000, 1.000000000000000000, 0.0000000000000000000 ) ) ;
#240 = CYLINDRICAL_SURFACE ( 'NONE', #299, 0.7799999999999994715 ) ;
#241 = CARTESIAN_POINT ( 'NONE',  ( -2.305360622554137148E-31, 8.086116559989204058E-33, -6.602815248951023050E-17 ) ) ;
#242 = CARTESIAN_POINT ( 'NONE',  ( 5.237222008264700033E-14, -1.836970198721029589E-15, 15.00000000000000000 ) ) ;
#243 = CONICAL_SURFACE ( 'NONE', #103, 1.499999999999996447, 0.1745329251994262310 ) ;
#244 = ADVANCED_FACE ( 'NONE', ( #222 ), #88, .F. ) ;
#245 = VERTEX_POINT ( 'NONE', #158 ) ;
#246 = EDGE_LOOP ( 'NONE', ( #27 ) ) ;
#247 = EDGE_CURVE ( 'NONE', #252, #252, #251, .T. ) ;
#248 = EDGE_LOOP ( 'NONE', ( #250 ) ) ;
#249 = ORIENTED_EDGE ( 'NONE', *, *, #272, .T. ) ;
#250 = ORIENTED_EDGE ( 'NONE', *, *, #268, .T. ) ;
#251 = CIRCLE ( 'NONE', #204, 0.6799999999999997158 ) ;
#252 = VERTEX_POINT ( 'NONE', #36 ) ;
#253 = FACE_BOUND ( 'NONE', #270, .T. ) ;
#254 = DIRECTION ( 'NONE',  ( -3.491481338843133355E-15, 1.224646799147353207E-16, -1.000000000000000000 ) ) ;
#255 = DIRECTION ( 'NONE',  ( -3.491481338843133355E-15, 1.224646799147353207E-16, -1.000000000000000000 ) ) ;
#256 = CIRCLE ( 'NONE', #291, 0.7103844939755800114 ) ;
#257 = CC_DESIGN_APPROVAL ( #50, ( #155 ) ) ;
#258 = CARTESIAN_POINT ( 'NONE',  ( 0.0000000000000000000, 0.0000000000000000000, 0.0000000000000000000 ) ) ;
#259 = FACE_OUTER_BOUND ( 'NONE', #248, .T. ) ;
#260 = PRODUCT_DEFINITION_SHAPE ( 'NONE', 'NONE',  #155 ) ;
#261 = PLANE ( 'NONE',  #150 ) ;
#262 = CLOSED_SHELL ( 'NONE', ( #38, #213, #286, #149, #119, #96, #91, #244 ) ) ;
#263 = CIRCLE ( 'NONE', #93, 1.200000000000001732 ) ;
#264 = DIRECTION ( 'NONE',  ( 4.275831445896958607E-31, 1.000000000000000000, 1.224646799147353207E-16 ) ) ;
#265 = CARTESIAN_POINT ( 'NONE',  ( 2.444036937190193349E-14, 0.7799999999999990274, 7.000000000000000000 ) ) ;
#266 = CARTESIAN_POINT ( 'NONE',  ( -1.892735826383160481E-31, 0.6356624327025947041, -5.421010862427520937E-17 ) ) ;
#267 =( GEOMETRIC_REPRESENTATION_CONTEXT ( 3 ) GLOBAL_UNCERTAINTY_ASSIGNED_CONTEXT ( ( #98 ) ) GLOBAL_UNIT_ASSIGNED_CONTEXT ( ( #63, #117, #94 ) ) REPRESENTATION_CONTEXT ( 'NONE', 'WORKASPACE' ) );
#268 = EDGE_CURVE ( 'NONE', #133, #133, #225, .T. ) ;
#269 = EDGE_LOOP ( 'NONE', ( #156 ) ) ;
#270 = EDGE_LOOP ( 'NONE', ( #233 ) ) ;
#271 = EDGE_LOOP ( 'NONE', ( #183 ) ) ;
#272 = EDGE_CURVE ( 'NONE', #46, #46, #51, .T. ) ;
#273 = ORIENTED_EDGE ( 'NONE', *, *, #247, .T. ) ;
#274 = CC_DESIGN_APPROVAL ( #10, ( #85 ) ) ;
#275 = DIRECTION ( 'NONE',  ( -3.491481338843133355E-15, 1.224646799147353207E-16, -1.000000000000000000 ) ) ;
#276 = DIRECTION ( 'NONE',  ( 0.0000000000000000000, -1.000000000000000000, 0.0000000000000000000 ) ) ;
#277 = DIRECTION ( 'NONE',  ( -4.275831445896958607E-31, -1.000000000000000000, -1.224646799147353207E-16 ) ) ;
#278 = CARTESIAN_POINT ( 'NONE',  ( 1.745740669421566678E-13, -6.123233995736766085E-15, 50.00000000000000000 ) ) ;
#279 = AXIS2_PLACEMENT_3D ( 'NONE', #187, #58, #162 ) ;
#280 = DIRECTION ( 'NONE',  ( -4.938281908685226020E-31, -1.000000000000000000, -1.390002785237827854E-16 ) ) ;
#281 = CARTESIAN_POINT ( 'NONE',  ( 8.728703347107833388E-16, 0.7799999999999990274, 0.2500000000000000000 ) ) ;
#282 = VERTEX_POINT ( 'NONE', #281 ) ;
#283 = CARTESIAN_POINT ( 'NONE',  ( 6.922011335999250184E-14, -2.427914745522297288E-15, 19.82542841913853238 ) ) ;
#284 = EDGE_CURVE ( 'NONE', #173, #173, #228, .T. ) ;
#285 = FACE_BOUND ( 'NONE', #105, .T. ) ;
#286 = ADVANCED_FACE ( 'NONE', ( #180, #132 ), #157, .T. ) ;
#287 = VERTEX_POINT ( 'NONE', #266 ) ;
#288 = COORDINATED_UNIVERSAL_TIME_OFFSET ( 1, 0, .AHEAD. ) ;
#289 = ORIENTED_EDGE ( 'NONE', *, *, #195, .F. ) ;
#290 = CALENDAR_DATE ( 2021, 1, 12 ) ;
#291 = AXIS2_PLACEMENT_3D ( 'NONE', #20, #237, #118 ) ;
#292 = AXIS2_PLACEMENT_3D ( 'NONE', #172, #198, #264 ) ;
#293 = EDGE_LOOP ( 'NONE', ( #127 ) ) ;
#294 = ORIENTED_EDGE ( 'NONE', *, *, #100, .F. ) ;
#295 = FACE_BOUND ( 'NONE', #159, .T. ) ;
#296 = DIRECTION ( 'NONE',  ( -3.491481338843133355E-15, 1.224646799147353207E-16, -1.000000000000000000 ) ) ;
#297 = CARTESIAN_POINT ( 'NONE',  ( 6.922011335999250184E-14, -2.427914745522297288E-15, 19.82542841913853238 ) ) ;
#298 = FACE_OUTER_BOUND ( 'NONE', #5, .T. ) ;
#299 = AXIS2_PLACEMENT_3D ( 'NONE', #258, #216, #84 ) ;
#300 = CARTESIAN_POINT ( 'NONE',  ( 8.728703347107829444E-16, -3.061616997868381785E-17, 0.2499999999999998890 ) ) ;
#301 = CC_DESIGN_PERSON_AND_ORGANIZATION_ASSIGNMENT ( #7, #109, ( #232 ) ) ;
#302 = CARTESIAN_POINT ( 'NONE',  ( 2.504511167915743435E-14, -8.784642641776457383E-16, 7.173205080756891228 ) ) ;
#303 = DATE_AND_TIME ( #69, #214 ) ;
ENDSEC;
END-ISO-10303-21;
