ISO-10303-21;
HEADER;
FILE_DESCRIPTION (( 'STEP AP203' ),
    '1' );
FILE_NAME ('975090.step',
    '2021-12-17T10:35:11',
    ( '' ),
    ( '' ),
    'SwSTEP 2.0',
    'SolidWorks 2019',
    '' );
FILE_SCHEMA (( 'CONFIG_CONTROL_DESIGN' ));
ENDSEC;

DATA;
#1 = EDGE_LOOP ( 'NONE', ( #177 ) ) ;
#2 = CIRCLE ( 'NONE', #147, 0.9080000000000001403 ) ;
#3 = APPROVAL_ROLE ( '' ) ;
#4 = AXIS2_PLACEMENT_3D ( 'NONE', #58, #200, #227 ) ;
#5 = APPROVAL ( #214, 'UNSPECIFIED' ) ;
#6 = APPROVAL_ROLE ( '' ) ;
#7 = CARTESIAN_POINT ( 'NONE',  ( 2.513866563967056016E-14, 0.9079999999999992522, 7.200000000000000178 ) ) ;
#8 = ORIENTED_EDGE ( 'NONE', *, *, #49, .F. ) ;
#9 = CALENDAR_DATE ( 2021, 17, 12 ) ;
#10 = FACE_OUTER_BOUND ( 'NONE', #98, .T. ) ;
#11 = CARTESIAN_POINT ( 'NONE',  ( -1.496541006063935687E-31, 5.249159239316502312E-33, -4.286263797015736595E-17 ) ) ;
#12 = DIRECTION ( 'NONE',  ( 0.0000000000000000000, 1.000000000000000000, 0.0000000000000000000 ) ) ;
#13 = CARTESIAN_POINT ( 'NONE',  ( 2.094888803305879619E-15, -7.347880794884117764E-17, 0.5999999999999999778 ) ) ;
#14 = APPROVAL_DATE_TIME ( #221, #53 ) ;
#15 = DIRECTION ( 'NONE',  ( -3.491481338843133355E-15, 1.224646799147353207E-16, -1.000000000000000000 ) ) ;
#16 = CC_DESIGN_PERSON_AND_ORGANIZATION_ASSIGNMENT ( #143, #117, ( #159 ) ) ;
#17 = CARTESIAN_POINT ( 'NONE',  ( 1.319779946082704535E-13, -4.629164900776995227E-15, 37.79999999999999716 ) ) ;
#18 = CARTESIAN_POINT ( 'NONE',  ( 2.973917444297032480E-14, 0.9761483474218586309, 8.517638090205029044 ) ) ;
#19 = FACE_OUTER_BOUND ( 'NONE', #174, .T. ) ;
#20 = CARTESIAN_POINT ( 'NONE',  ( 2.513866563967056016E-14, 0.9079999999999992522, 7.200000000000000178 ) ) ;
#21 = FACE_OUTER_BOUND ( 'NONE', #213, .T. ) ;
#22 = DIRECTION ( 'NONE',  ( 1.000000000000000000, 0.0000000000000000000, 0.0000000000000000000 ) ) ;
#23 = EDGE_CURVE ( 'NONE', #38, #38, #275, .T. ) ;
#24 = CC_DESIGN_SECURITY_CLASSIFICATION ( #235, ( #159 ) ) ;
#25 = AXIS2_PLACEMENT_3D ( 'NONE', #61, #109, #271 ) ;
#26 = PERSON_AND_ORGANIZATION_ROLE ( 'design_owner' ) ;
#27 = EDGE_LOOP ( 'NONE', ( #82 ) ) ;
#28 = SECURITY_CLASSIFICATION_LEVEL ( 'unclassified' ) ;
#29 = CARTESIAN_POINT ( 'NONE',  ( 0.0000000000000000000, 0.0000000000000000000, 0.0000000000000000000 ) ) ;
#30 = DIRECTION ( 'NONE',  ( 4.242136441381579836E-31, 1.000000000000000000, 1.194055256041305306E-16 ) ) ;
#31 = APPROVAL_ROLE ( '' ) ;
#32 = ORIENTED_EDGE ( 'NONE', *, *, #139, .T. ) ;
#33 = FACE_BOUND ( 'NONE', #264, .T. ) ;
#34 = ORIENTED_EDGE ( 'NONE', *, *, #139, .F. ) ;
#35 = PRODUCT_DEFINITION ( 'UNKNOWN', '', #159, #265 ) ;
#36 = MANIFOLD_SOLID_BREP ( 'Corps-Déplacer/Copier1[1]', #99 ) ;
#37 = FACE_OUTER_BOUND ( 'NONE', #157, .T. ) ;
#38 = VERTEX_POINT ( 'NONE', #229 ) ;
#39 = AXIS2_PLACEMENT_3D ( 'NONE', #11, #55, #290 ) ;
#40 = AXIS2_PLACEMENT_3D ( 'NONE', #13, #75, #30 ) ;
#41 = CARTESIAN_POINT ( 'NONE',  ( 1.326762908760390423E-13, -4.653657836759941941E-15, 38.00000000000000000 ) ) ;
#42 = VERTEX_POINT ( 'NONE', #111 ) ;
#43 = FACE_BOUND ( 'NONE', #215, .T. ) ;
#44 = ADVANCED_FACE ( 'NONE', ( #80 ), #242, .F. ) ;
#45 = CALENDAR_DATE ( 2021, 17, 12 ) ;
#46 = PERSON_AND_ORGANIZATION ( #108, #115 ) ;
#47 = AXIS2_PLACEMENT_3D ( 'NONE', #101, #127, #12 ) ;
#48 = PERSON_AND_ORGANIZATION_ROLE ( 'creator' ) ;
#49 = EDGE_CURVE ( 'NONE', #106, #106, #156, .T. ) ;
#50 = ORIENTED_EDGE ( 'NONE', *, *, #96, .F. ) ;
#51 = EDGE_LOOP ( 'NONE', ( #94 ) ) ;
#52 = AXIS2_PLACEMENT_3D ( 'NONE', #196, #173, #233 ) ;
#53 = APPROVAL ( #217, 'UNSPECIFIED' ) ;
#54 = CALENDAR_DATE ( 2021, 17, 12 ) ;
#55 = DIRECTION ( 'NONE',  ( -3.491481338843133355E-15, 1.224646799147353207E-16, -1.000000000000000000 ) ) ;
#56 = CARTESIAN_POINT ( 'NONE',  ( 2.513866563967056016E-14, -8.817456953860942303E-16, 7.200000000000000178 ) ) ;
#57 = PERSON_AND_ORGANIZATION ( #108, #115 ) ;
#58 = CARTESIAN_POINT ( 'NONE',  ( 1.002192248242410419E-15, -3.515217209630057234E-17, 0.2870392681447000438 ) ) ;
#59 = FACE_BOUND ( 'NONE', #150, .T. ) ;
#60 = DIRECTION ( 'NONE',  ( -4.275831445896958607E-31, -1.000000000000000000, -1.224646799147353207E-16 ) ) ;
#61 = CARTESIAN_POINT ( 'NONE',  ( 0.0000000000000000000, 0.0000000000000000000, 0.0000000000000000000 ) ) ;
#62 = PRODUCT_RELATED_PRODUCT_CATEGORY ( 'detail', '', ( #104 ) ) ;
#63 = VERTEX_POINT ( 'NONE', #164 ) ;
#64 = CARTESIAN_POINT ( 'NONE',  ( 2.094888803305879619E-15, -7.347880794884117764E-17, 0.5999999999999999778 ) ) ;
#65 = DIRECTION ( 'NONE',  ( -4.275831445896958607E-31, -1.000000000000000000, -1.224646799147353207E-16 ) ) ;
#66 = AXIS2_PLACEMENT_3D ( 'NONE', #29, #121, #22 ) ;
#67 = APPROVAL ( #142, 'UNSPECIFIED' ) ;
#68 = COORDINATED_UNIVERSAL_TIME_OFFSET ( 1, 0, .AHEAD. ) ;
#69 = APPLICATION_CONTEXT ( 'configuration controlled 3d designs of mechanical parts and assemblies' ) ;
#70 =( NAMED_UNIT ( * ) PLANE_ANGLE_UNIT ( ) SI_UNIT ( $, .RADIAN. ) );
#71 = ORIENTED_EDGE ( 'NONE', *, *, #198, .T. ) ;
#72 = PERSON_AND_ORGANIZATION ( #108, #115 ) ;
#73 =( NAMED_UNIT ( * ) SI_UNIT ( $, .STERADIAN. ) SOLID_ANGLE_UNIT ( ) );
#74 = EDGE_LOOP ( 'NONE', ( #194 ) ) ;
#75 = DIRECTION ( 'NONE',  ( -3.491481338843133355E-15, 1.224646799147353207E-16, -1.000000000000000000 ) ) ;
#76 = APPROVAL_PERSON_ORGANIZATION ( #57, #53, #31 ) ;
#77 = AXIS2_PLACEMENT_3D ( 'NONE', #185, #140, #135 ) ;
#78 = ORIENTED_EDGE ( 'NONE', *, *, #112, .T. ) ;
#79 = CONICAL_SURFACE ( 'NONE', #129, 0.8000000000000010436, 0.7853981633974510546 ) ;
#80 = FACE_OUTER_BOUND ( 'NONE', #74, .T. ) ;
#81 = CARTESIAN_POINT ( 'NONE',  ( -7.482705030319678437E-32, 2.624579619658251156E-33, -2.143131898507868297E-17 ) ) ;
#82 = ORIENTED_EDGE ( 'NONE', *, *, #112, .F. ) ;
#83 = FACE_OUTER_BOUND ( 'NONE', #1, .T. ) ;
#84 = DIRECTION ( 'NONE',  ( -4.242136441381579836E-31, -1.000000000000000000, -1.194055256041305306E-16 ) ) ;
#85 = DIRECTION ( 'NONE',  ( -3.491481338843133355E-15, 1.224646799147353207E-16, -1.000000000000000000 ) ) ;
#86 = CIRCLE ( 'NONE', #4, 0.8471665961940019196 ) ;
#87 = CARTESIAN_POINT ( 'NONE',  ( 1.002192248242410419E-15, -3.515217209630057234E-17, 0.2870392681447000438 ) ) ;
#88 = CARTESIAN_POINT ( 'NONE',  ( 3.004997067684419128E-14, -1.054011086768762765E-15, 8.606653669471119983 ) ) ;
#89 = CC_DESIGN_PERSON_AND_ORGANIZATION_ASSIGNMENT ( #146, #26, ( #104 ) ) ;
#90 = ORIENTED_EDGE ( 'NONE', *, *, #201, .F. ) ;
#91 = APPROVAL_DATE_TIME ( #168, #5 ) ;
#92 = PERSON_AND_ORGANIZATION ( #108, #115 ) ;
#93 = PERSON_AND_ORGANIZATION ( #108, #115 ) ;
#94 = ORIENTED_EDGE ( 'NONE', *, *, #120, .F. ) ;
#95 = PERSON_AND_ORGANIZATION ( #108, #115 ) ;
#96 = EDGE_CURVE ( 'NONE', #63, #63, #162, .T. ) ;
#97 = CYLINDRICAL_SURFACE ( 'NONE', #152, 0.9079999999999996962 ) ;
#98 = EDGE_LOOP ( 'NONE', ( #71 ) ) ;
#99 = CLOSED_SHELL ( 'NONE', ( #297, #258, #169, #166, #255, #102, #277 ) ) ;
#100 = UNCERTAINTY_MEASURE_WITH_UNIT (LENGTH_MEASURE( 1.000000000000000082E-05 ), #303, 'distance_accuracy_value', 'NONE');
#101 = CARTESIAN_POINT ( 'NONE',  ( 2.513866563967056016E-14, -8.817456953860942303E-16, 7.200000000000000178 ) ) ;
#102 = ADVANCED_FACE ( 'NONE', ( #154, #33 ), #79, .T. ) ;
#103 = DIRECTION ( 'NONE',  ( 0.0000000000000000000, 1.000000000000000000, 0.0000000000000000000 ) ) ;
#104 = PRODUCT ( '975090', '975090', '', ( #211 ) ) ;
#105 = PLANE ( 'NONE',  #291 ) ;
#106 = VERTEX_POINT ( 'NONE', #18 ) ;
#107 = CC_DESIGN_DATE_AND_TIME_ASSIGNMENT ( #126, #244, ( #235 ) ) ;
#108 = PERSON ( 'UNSPECIFIED', 'UNSPECIFIED', 'UNSPECIFIED', ('UNSPECIFIED'), ('UNSPECIFIED'), ('UNSPECIFIED') ) ;
#109 = DIRECTION ( 'NONE',  ( -3.491481338843133355E-15, 1.224646799147353207E-16, -1.000000000000000000 ) ) ;
#110 = APPROVAL_PERSON_ORGANIZATION ( #46, #67, #6 ) ;
#111 = CARTESIAN_POINT ( 'NONE',  ( 1.002192248242410813E-15, 0.8471665961940019196, 0.2870392681447001548 ) ) ;
#112 = EDGE_CURVE ( 'NONE', #42, #42, #86, .T. ) ;
#113 = CARTESIAN_POINT ( 'NONE',  ( 2.513866563967056016E-14, 6.808909413284822756E-33, 7.200000000000000178 ) ) ;
#114 = CARTESIAN_POINT ( 'NONE',  ( 2.094888803305880013E-15, 0.9079999999999992522, 0.6000000000000000888 ) ) ;
#115 = ORGANIZATION ( 'UNSPECIFIED', 'UNSPECIFIED', '' ) ;
#116 = APPROVAL_DATE_TIME ( #192, #67 ) ;
#117 = PERSON_AND_ORGANIZATION_ROLE ( 'creator' ) ;
#118 = AXIS2_PLACEMENT_3D ( 'NONE', #153, #246, #223 ) ;
#119 = ORIENTED_EDGE ( 'NONE', *, *, #49, .T. ) ;
#120 = EDGE_CURVE ( 'NONE', #232, #232, #2, .T. ) ;
#121 = DIRECTION ( 'NONE',  ( 0.0000000000000000000, 0.0000000000000000000, 1.000000000000000000 ) ) ;
#122 = ORIENTED_EDGE ( 'NONE', *, *, #96, .T. ) ;
#123 = APPLICATION_PROTOCOL_DEFINITION ( 'international standard', 'config_control_design', 1994, #69 ) ;
#124 = EDGE_CURVE ( 'NONE', #148, #148, #292, .T. ) ;
#125 = ORIENTED_EDGE ( 'NONE', *, *, #124, .F. ) ;
#126 = DATE_AND_TIME ( #240, #272 ) ;
#127 = DIRECTION ( 'NONE',  ( -3.491481338843133355E-15, 1.224646799147353207E-16, -1.000000000000000000 ) ) ;
#128 = EDGE_LOOP ( 'NONE', ( #34 ) ) ;
#129 = AXIS2_PLACEMENT_3D ( 'NONE', #288, #130, #103 ) ;
#130 = DIRECTION ( 'NONE',  ( -3.491481338843133355E-15, 1.224646799147353207E-16, -1.000000000000000000 ) ) ;
#131 = AXIS2_PLACEMENT_3D ( 'NONE', #64, #302, #84 ) ;
#132 = COORDINATED_UNIVERSAL_TIME_OFFSET ( 1, 0, .AHEAD. ) ;
#133 = EDGE_LOOP ( 'NONE', ( #125 ) ) ;
#134 = DIRECTION ( 'NONE',  ( 4.275831445896958607E-31, 1.000000000000000000, 1.224646799147353207E-16 ) ) ;
#135 = DIRECTION ( 'NONE',  ( 4.275831445896957731E-31, 1.000000000000000000, 1.224646799147353207E-16 ) ) ;
#136 = CONICAL_SURFACE ( 'NONE', #52, 0.9999999999999972244, 0.2617993877991462437 ) ;
#137 = DIRECTION ( 'NONE',  ( 4.275831445896957731E-31, 1.000000000000000000, 1.224646799147353207E-16 ) ) ;
#138 = DIRECTION ( 'NONE',  ( 0.0000000000000000000, 1.000000000000000000, 0.0000000000000000000 ) ) ;
#139 = EDGE_CURVE ( 'NONE', #141, #141, #183, .T. ) ;
#140 = DIRECTION ( 'NONE',  ( -3.491481338843133355E-15, 1.224646799147353207E-16, -1.000000000000000000 ) ) ;
#141 = VERTEX_POINT ( 'NONE', #7 ) ;
#142 = APPROVAL_STATUS ( 'not_yet_approved' ) ;
#143 = PERSON_AND_ORGANIZATION ( #108, #115 ) ;
#144 = CC_DESIGN_APPROVAL ( #53, ( #235 ) ) ;
#145 = AXIS2_PLACEMENT_3D ( 'NONE', #182, #296, #60 ) ;
#146 = PERSON_AND_ORGANIZATION ( #108, #115 ) ;
#147 = AXIS2_PLACEMENT_3D ( 'NONE', #56, #248, #202 ) ;
#148 = VERTEX_POINT ( 'NONE', #114 ) ;
#149 = ADVANCED_FACE ( 'NONE', ( #219, #295 ), #97, .T. ) ;
#150 = EDGE_LOOP ( 'NONE', ( #8 ) ) ;
#151 = DIRECTION ( 'NONE',  ( 4.275831445896958607E-31, 1.000000000000000000, 1.224646799147352961E-16 ) ) ;
#152 = AXIS2_PLACEMENT_3D ( 'NONE', #218, #269, #151 ) ;
#153 = CARTESIAN_POINT ( 'NONE',  ( 2.973917444297032480E-14, -1.043109822346516398E-15, 8.517638090205029044 ) ) ;
#154 = FACE_OUTER_BOUND ( 'NONE', #225, .T. ) ;
#155 = APPROVAL_PERSON_ORGANIZATION ( #93, #5, #3 ) ;
#156 = CIRCLE ( 'NONE', #118, 0.9761483474218597411 ) ;
#157 = EDGE_LOOP ( 'NONE', ( #122 ) ) ;
#158 = FACE_OUTER_BOUND ( 'NONE', #189, .T. ) ;
#159 = PRODUCT_DEFINITION_FORMATION_WITH_SPECIFIED_SOURCE ( 'ANY', '', #104, .NOT_KNOWN. ) ;
#160 = LOCAL_TIME ( 11, 35, 11.00000000000000000, #172 ) ;
#161 = FACE_OUTER_BOUND ( 'NONE', #284, .T. ) ;
#162 = CIRCLE ( 'NONE', #237, 0.9080000000000002514 ) ;
#163 = TOROIDAL_SURFACE ( 'NONE', #77, 2.907999999999999918, 2.000000000000000000 ) ;
#164 = CARTESIAN_POINT ( 'NONE',  ( 2.793185071074506684E-14, 0.9079999999999992522, 8.000000000000000000 ) ) ;
#165 = FACE_OUTER_BOUND ( 'NONE', #282, .T. ) ;
#166 = ADVANCED_FACE ( 'NONE', ( #59, #10 ), #136, .T. ) ;
#167 = CARTESIAN_POINT ( 'NONE',  ( 1.326762908760390423E-13, 5.999039130647368167E-33, 38.00000000000000000 ) ) ;
#168 = DATE_AND_TIME ( #9, #222 ) ;
#169 = ADVANCED_FACE ( 'NONE', ( #161, #158 ), #163, .F. ) ;
#170 = CC_DESIGN_APPROVAL ( #67, ( #159 ) ) ;
#171 = AXIS2_PLACEMENT_3D ( 'NONE', #41, #250, #228 ) ;
#172 = COORDINATED_UNIVERSAL_TIME_OFFSET ( 1, 0, .AHEAD. ) ;
#173 = DIRECTION ( 'NONE',  ( 3.491481338843133355E-15, -1.224646799147353207E-16, 1.000000000000000000 ) ) ;
#174 = EDGE_LOOP ( 'NONE', ( #279 ) ) ;
#175 = CONICAL_SURFACE ( 'NONE', #273, 0.8471665961940019196, 1.047197551196592968 ) ;
#176 = DIRECTION ( 'NONE',  ( 3.491481338843133355E-15, -1.224646799147353207E-16, 1.000000000000000000 ) ) ;
#177 = ORIENTED_EDGE ( 'NONE', *, *, #198, .F. ) ;
#178 = ORIENTED_EDGE ( 'NONE', *, *, #201, .T. ) ;
#179 = CC_DESIGN_DATE_AND_TIME_ASSIGNMENT ( #283, #256, ( #35 ) ) ;
#180 = CYLINDRICAL_SURFACE ( 'NONE', #25, 0.9080000000000001403 ) ;
#181 = PRODUCT_DEFINITION_SHAPE ( 'NONE', 'NONE',  #35 ) ;
#182 = CARTESIAN_POINT ( 'NONE',  ( 2.513866563967056016E-14, 6.808909413284822756E-33, 7.200000000000000178 ) ) ;
#183 = CIRCLE ( 'NONE', #47, 0.9080000000000001403 ) ;
#184 = EDGE_CURVE ( 'NONE', #285, #285, #224, .T. ) ;
#185 = CARTESIAN_POINT ( 'NONE',  ( 2.793185071074506684E-14, -8.673617379884035472E-16, 8.000000000000000000 ) ) ;
#186 = FACE_OUTER_BOUND ( 'NONE', #51, .T. ) ;
#187 = CC_DESIGN_APPROVAL ( #5, ( #35 ) ) ;
#188 = CARTESIAN_POINT ( 'NONE',  ( 1.319779946082704535E-13, 0.9999999999999963363, 37.79999999999999716 ) ) ;
#189 = EDGE_LOOP ( 'NONE', ( #119 ) ) ;
#190 = CLOSED_SHELL ( 'NONE', ( #44, #220, #251, #149, #268 ) ) ;
#191 = COORDINATED_UNIVERSAL_TIME_OFFSET ( 1, 0, .AHEAD. ) ;
#192 = DATE_AND_TIME ( #234, #300 ) ;
#193 = VERTEX_POINT ( 'NONE', #188 ) ;
#194 = ORIENTED_EDGE ( 'NONE', *, *, #23, .T. ) ;
#195 = COORDINATED_UNIVERSAL_TIME_OFFSET ( 1, 0, .AHEAD. ) ;
#196 = CARTESIAN_POINT ( 'NONE',  ( 3.004997067684419128E-14, -1.054011086768762765E-15, 8.606653669471119983 ) ) ;
#197 = CARTESIAN_POINT ( 'NONE',  ( 2.793185071074506684E-14, -9.797174393178825657E-16, 8.000000000000000000 ) ) ;
#198 = EDGE_CURVE ( 'NONE', #281, #281, #226, .T. ) ;
#199 = AXIS2_PLACEMENT_3D ( 'NONE', #167, #274, #134 ) ;
#200 = DIRECTION ( 'NONE',  ( -3.491481338843133355E-15, 1.224646799147353207E-16, -1.000000000000000000 ) ) ;
#201 = EDGE_CURVE ( 'NONE', #193, #193, #230, .T. ) ;
#202 = DIRECTION ( 'NONE',  ( 0.0000000000000000000, 1.000000000000000000, 0.0000000000000000000 ) ) ;
#203 = PLANE ( 'NONE',  #145 ) ;
#204 = FACE_OUTER_BOUND ( 'NONE', #262, .T. ) ;
#205 = CYLINDRICAL_SURFACE ( 'NONE', #263, 0.9999999999999991118 ) ;
#206 = FACE_BOUND ( 'NONE', #27, .T. ) ;
#207 = AXIS2_PLACEMENT_3D ( 'NONE', #17, #276, #138 ) ;
#208 = FACE_OUTER_BOUND ( 'NONE', #293, .T. ) ;
#209 = CC_DESIGN_PERSON_AND_ORGANIZATION_ASSIGNMENT ( #72, #260, ( #235 ) ) ;
#210 = ADVANCED_BREP_SHAPE_REPRESENTATION ( '975090', ( #36, #239, #66 ), #245 ) ;
#211 = MECHANICAL_CONTEXT ( 'NONE', #253, 'mechanical' ) ;
#212 = AXIS2_PLACEMENT_3D ( 'NONE', #81, #176, #266 ) ;
#213 = EDGE_LOOP ( 'NONE', ( #243 ) ) ;
#214 = APPROVAL_STATUS ( 'not_yet_approved' ) ;
#215 = EDGE_LOOP ( 'NONE', ( #249 ) ) ;
#216 = ORIENTED_EDGE ( 'NONE', *, *, #184, .T. ) ;
#217 = APPROVAL_STATUS ( 'not_yet_approved' ) ;
#218 = CARTESIAN_POINT ( 'NONE',  ( 0.0000000000000000000, 0.0000000000000000000, 0.0000000000000000000 ) ) ;
#219 = FACE_OUTER_BOUND ( 'NONE', #133, .T. ) ;
#220 = ADVANCED_FACE ( 'NONE', ( #43, #208 ), #175, .T. ) ;
#221 = DATE_AND_TIME ( #54, #160 ) ;
#222 = LOCAL_TIME ( 11, 35, 11.00000000000000000, #68 ) ;
#223 = DIRECTION ( 'NONE',  ( 0.0000000000000000000, 1.000000000000000000, 0.0000000000000000000 ) ) ;
#224 = CIRCLE ( 'NONE', #171, 0.8000000000000010436 ) ;
#225 = EDGE_LOOP ( 'NONE', ( #90 ) ) ;
#226 = CIRCLE ( 'NONE', #259, 0.9999999999999972244 ) ;
#227 = DIRECTION ( 'NONE',  ( 4.546756099779448867E-31, 1.000000000000000000, 1.279798067294453478E-16 ) ) ;
#228 = DIRECTION ( 'NONE',  ( 0.0000000000000000000, 1.000000000000000000, 0.0000000000000000000 ) ) ;
#229 = CARTESIAN_POINT ( 'NONE',  ( 0.0000000000000000000, 0.3500000000000000333, 0.0000000000000000000 ) ) ;
#230 = CIRCLE ( 'NONE', #207, 1.000000000000000888 ) ;
#231 = DIRECTION ( 'NONE',  ( 3.491481338843133355E-15, -1.224646799147353207E-16, 1.000000000000000000 ) ) ;
#232 = VERTEX_POINT ( 'NONE', #20 ) ;
#233 = DIRECTION ( 'NONE',  ( 0.0000000000000000000, -1.000000000000000000, 0.0000000000000000000 ) ) ;
#234 = CALENDAR_DATE ( 2021, 17, 12 ) ;
#235 = SECURITY_CLASSIFICATION ( '', '', #28 ) ;
#236 = CARTESIAN_POINT ( 'NONE',  ( 3.004997067684419128E-14, 0.9999999999999961142, 8.606653669471119983 ) ) ;
#237 = AXIS2_PLACEMENT_3D ( 'NONE', #197, #15, #267 ) ;
#238 = PERSON_AND_ORGANIZATION_ROLE ( 'design_supplier' ) ;
#239 = MANIFOLD_SOLID_BREP ( 'Corps-Déplacer/Copier1[2]', #190 ) ;
#240 = CALENDAR_DATE ( 2021, 17, 12 ) ;
#241 = EDGE_LOOP ( 'NONE', ( #32 ) ) ;
#242 = PLANE ( 'NONE',  #212 ) ;
#243 = ORIENTED_EDGE ( 'NONE', *, *, #124, .T. ) ;
#244 = DATE_TIME_ROLE ( 'classification_date' ) ;
#245 =( GEOMETRIC_REPRESENTATION_CONTEXT ( 3 ) GLOBAL_UNCERTAINTY_ASSIGNED_CONTEXT ( ( #100 ) ) GLOBAL_UNIT_ASSIGNED_CONTEXT ( ( #303, #70, #73 ) ) REPRESENTATION_CONTEXT ( 'NONE', 'WORKASPACE' ) );
#246 = DIRECTION ( 'NONE',  ( -3.491481338843133355E-15, 1.224646799147353207E-16, -1.000000000000000000 ) ) ;
#247 = CONICAL_SURFACE ( 'NONE', #131, 0.9079999999999993632, 0.1919862177193690789 ) ;
#248 = DIRECTION ( 'NONE',  ( -3.491481338843133355E-15, 1.224646799147353207E-16, -1.000000000000000000 ) ) ;
#249 = ORIENTED_EDGE ( 'NONE', *, *, #23, .F. ) ;
#250 = DIRECTION ( 'NONE',  ( -3.491481338843133355E-15, 1.224646799147353207E-16, -1.000000000000000000 ) ) ;
#251 = ADVANCED_FACE ( 'NONE', ( #206, #21 ), #247, .T. ) ;
#252 = PLANE ( 'NONE',  #199 ) ;
#253 = APPLICATION_CONTEXT ( 'configuration controlled 3d designs of mechanical parts and assemblies' ) ;
#254 = DIRECTION ( 'NONE',  ( -3.491481338843133355E-15, 1.224646799147353207E-16, -1.000000000000000000 ) ) ;
#255 = ADVANCED_FACE ( 'NONE', ( #83, #165 ), #205, .T. ) ;
#256 = DATE_TIME_ROLE ( 'creation_date' ) ;
#257 = APPLICATION_PROTOCOL_DEFINITION ( 'international standard', 'config_control_design', 1994, #253 ) ;
#258 = ADVANCED_FACE ( 'NONE', ( #186, #37 ), #180, .T. ) ;
#259 = AXIS2_PLACEMENT_3D ( 'NONE', #88, #85, #301 ) ;
#260 = PERSON_AND_ORGANIZATION_ROLE ( 'classification_officer' ) ;
#261 = CC_DESIGN_PERSON_AND_ORGANIZATION_ASSIGNMENT ( #92, #238, ( #159 ) ) ;
#262 = EDGE_LOOP ( 'NONE', ( #294 ) ) ;
#263 = AXIS2_PLACEMENT_3D ( 'NONE', #299, #254, #137 ) ;
#264 = EDGE_LOOP ( 'NONE', ( #216 ) ) ;
#265 = DESIGN_CONTEXT ( 'detailed design', #69, 'design' ) ;
#266 = DIRECTION ( 'NONE',  ( -4.275831445896958607E-31, -1.000000000000000000, -1.224646799147353207E-16 ) ) ;
#267 = DIRECTION ( 'NONE',  ( 0.0000000000000000000, 1.000000000000000000, 0.0000000000000000000 ) ) ;
#268 = ADVANCED_FACE ( 'NONE', ( #278 ), #105, .T. ) ;
#269 = DIRECTION ( 'NONE',  ( -3.491481338843133355E-15, 1.224646799147353207E-16, -1.000000000000000000 ) ) ;
#270 = DIRECTION ( 'NONE',  ( -4.546756099779448867E-31, -1.000000000000000000, -1.279798067294453478E-16 ) ) ;
#271 = DIRECTION ( 'NONE',  ( 4.275831445896958607E-31, 1.000000000000000000, 1.224646799147353207E-16 ) ) ;
#272 = LOCAL_TIME ( 11, 35, 11.00000000000000000, #132 ) ;
#273 = AXIS2_PLACEMENT_3D ( 'NONE', #87, #298, #270 ) ;
#274 = DIRECTION ( 'NONE',  ( -3.491481338843133355E-15, 1.224646799147353207E-16, -1.000000000000000000 ) ) ;
#275 = CIRCLE ( 'NONE', #39, 0.3500000000000000333 ) ;
#276 = DIRECTION ( 'NONE',  ( -3.491481338843133355E-15, 1.224646799147353207E-16, -1.000000000000000000 ) ) ;
#277 = ADVANCED_FACE ( 'NONE', ( #204 ), #252, .F. ) ;
#278 = FACE_OUTER_BOUND ( 'NONE', #128, .T. ) ;
#279 = ORIENTED_EDGE ( 'NONE', *, *, #120, .T. ) ;
#280 = CARTESIAN_POINT ( 'NONE',  ( 1.326762908760390423E-13, 0.7999999999999963807, 38.00000000000000000 ) ) ;
#281 = VERTEX_POINT ( 'NONE', #236 ) ;
#282 = EDGE_LOOP ( 'NONE', ( #178 ) ) ;
#283 = DATE_AND_TIME ( #45, #289 ) ;
#284 = EDGE_LOOP ( 'NONE', ( #50 ) ) ;
#285 = VERTEX_POINT ( 'NONE', #280 ) ;
#286 = CC_DESIGN_PERSON_AND_ORGANIZATION_ASSIGNMENT ( #95, #48, ( #35 ) ) ;
#287 = SHAPE_DEFINITION_REPRESENTATION ( #181, #210 ) ;
#288 = CARTESIAN_POINT ( 'NONE',  ( 1.326762908760390423E-13, -4.653657836759941941E-15, 38.00000000000000000 ) ) ;
#289 = LOCAL_TIME ( 11, 35, 11.00000000000000000, #191 ) ;
#290 = DIRECTION ( 'NONE',  ( 4.275831445896958607E-31, 1.000000000000000000, 1.224646799147353207E-16 ) ) ;
#291 = AXIS2_PLACEMENT_3D ( 'NONE', #113, #231, #65 ) ;
#292 = CIRCLE ( 'NONE', #40, 0.9079999999999993632 ) ;
#293 = EDGE_LOOP ( 'NONE', ( #78 ) ) ;
#294 = ORIENTED_EDGE ( 'NONE', *, *, #184, .F. ) ;
#295 = FACE_OUTER_BOUND ( 'NONE', #241, .T. ) ;
#296 = DIRECTION ( 'NONE',  ( 3.491481338843133355E-15, -1.224646799147353207E-16, 1.000000000000000000 ) ) ;
#297 = ADVANCED_FACE ( 'NONE', ( #19 ), #203, .F. ) ;
#298 = DIRECTION ( 'NONE',  ( 3.491481338843133355E-15, -1.224646799147353207E-16, 1.000000000000000000 ) ) ;
#299 = CARTESIAN_POINT ( 'NONE',  ( 0.0000000000000000000, 0.0000000000000000000, 0.0000000000000000000 ) ) ;
#300 = LOCAL_TIME ( 11, 35, 11.00000000000000000, #195 ) ;
#301 = DIRECTION ( 'NONE',  ( 0.0000000000000000000, 1.000000000000000000, 0.0000000000000000000 ) ) ;
#302 = DIRECTION ( 'NONE',  ( 3.491481338843133355E-15, -1.224646799147353207E-16, 1.000000000000000000 ) ) ;
#303 =( LENGTH_UNIT ( ) NAMED_UNIT ( * ) SI_UNIT ( .MILLI., .METRE. ) );
ENDSEC;
END-ISO-10303-21;
