ISO-10303-21;
HEADER;
FILE_DESCRIPTION (( 'STEP AP203' ),
    '1' );
FILE_NAME ('974959.step',
    '2021-12-17T10:54:18',
    ( '' ),
    ( '' ),
    'SwSTEP 2.0',
    'SolidWorks 2019',
    '' );
FILE_SCHEMA (( 'CONFIG_CONTROL_DESIGN' ));
ENDSEC;

DATA;
#1 = EDGE_CURVE ( 'NONE', #36, #36, #288, .T. ) ;
#2 = CARTESIAN_POINT ( 'NONE',  ( 2.793185071074506684E-14, -9.797174393178825657E-16, 8.000000000000000000 ) ) ;
#3 = SHAPE_DEFINITION_REPRESENTATION ( #83, #166 ) ;
#4 = DIRECTION ( 'NONE',  ( -3.491481338843133355E-15, 1.224646799147353207E-16, -1.000000000000000000 ) ) ;
#5 = DATE_TIME_ROLE ( 'classification_date' ) ;
#6 = FACE_OUTER_BOUND ( 'NONE', #70, .T. ) ;
#7 = CARTESIAN_POINT ( 'NONE',  ( 2.793185071074506684E-14, 8.308669195946674890E-33, 8.000000000000000000 ) ) ;
#8 = CALENDAR_DATE ( 2021, 17, 12 ) ;
#9 = VERTEX_POINT ( 'NONE', #269 ) ;
#10 = LOCAL_TIME ( 11, 54, 18.00000000000000000, #287 ) ;
#11 = AXIS2_PLACEMENT_3D ( 'NONE', #2, #261, #21 ) ;
#12 = ORIENTED_EDGE ( 'NONE', *, *, #79, .T. ) ;
#13 = CIRCLE ( 'NONE', #198, 0.4550000000000000155 ) ;
#14 = EDGE_LOOP ( 'NONE', ( #119 ) ) ;
#15 = ADVANCED_FACE ( 'NONE', ( #257, #137 ), #258, .T. ) ;
#16 = DIRECTION ( 'NONE',  ( -3.491481338843133355E-15, 1.224646799147353207E-16, -1.000000000000000000 ) ) ;
#17 = SECURITY_CLASSIFICATION ( '', '', #72 ) ;
#18 = ORIENTED_EDGE ( 'NONE', *, *, #195, .F. ) ;
#19 = EDGE_CURVE ( 'NONE', #295, #295, #173, .T. ) ;
#20 = AXIS2_PLACEMENT_3D ( 'NONE', #7, #197, #144 ) ;
#21 = DIRECTION ( 'NONE',  ( 0.0000000000000000000, 1.000000000000000000, 0.0000000000000000000 ) ) ;
#22 = APPROVAL_ROLE ( '' ) ;
#23 = DIRECTION ( 'NONE',  ( -4.275831445896958607E-31, -1.000000000000000000, -1.224646799147353207E-16 ) ) ;
#24 = DATE_AND_TIME ( #213, #245 ) ;
#25 = FACE_BOUND ( 'NONE', #64, .T. ) ;
#26 = COORDINATED_UNIVERSAL_TIME_OFFSET ( 1, 0, .AHEAD. ) ;
#27 = ADVANCED_FACE ( 'NONE', ( #53 ), #190, .F. ) ;
#28 = FACE_OUTER_BOUND ( 'NONE', #41, .T. ) ;
#29 = APPROVAL_STATUS ( 'not_yet_approved' ) ;
#30 = FACE_OUTER_BOUND ( 'NONE', #278, .T. ) ;
#31 = DATE_AND_TIME ( #127, #124 ) ;
#32 = FACE_OUTER_BOUND ( 'NONE', #182, .T. ) ;
#33 = AXIS2_PLACEMENT_3D ( 'NONE', #152, #180, #268 ) ;
#34 = CC_DESIGN_DATE_AND_TIME_ASSIGNMENT ( #24, #5, ( #17 ) ) ;
#35 =( NAMED_UNIT ( * ) PLANE_ANGLE_UNIT ( ) SI_UNIT ( $, .RADIAN. ) );
#36 = VERTEX_POINT ( 'NONE', #37 ) ;
#37 = CARTESIAN_POINT ( 'NONE',  ( 1.492608272355439415E-13, 1.249999999999996447, 42.74999999999999289 ) ) ;
#38 = FACE_OUTER_BOUND ( 'NONE', #300, .T. ) ;
#39 = MANIFOLD_SOLID_BREP ( 'Corps-Déplacer/Copier1[1]', #208 ) ;
#40 = DIRECTION ( 'NONE',  ( 0.0000000000000000000, 0.0000000000000000000, 1.000000000000000000 ) ) ;
#41 = EDGE_LOOP ( 'NONE', ( #12 ) ) ;
#42 = ORIENTED_EDGE ( 'NONE', *, *, #19, .F. ) ;
#43 = PRODUCT_DEFINITION_FORMATION_WITH_SPECIFIED_SOURCE ( 'ANY', '', #151, .NOT_KNOWN. ) ;
#44 = DIRECTION ( 'NONE',  ( -3.491481338843133355E-15, 1.224646799147353207E-16, -1.000000000000000000 ) ) ;
#45 = EDGE_LOOP ( 'NONE', ( #184 ) ) ;
#46 = ADVANCED_FACE ( 'NONE', ( #71 ), #194, .T. ) ;
#47 = EDGE_LOOP ( 'NONE', ( #114 ) ) ;
#48 = FACE_OUTER_BOUND ( 'NONE', #165, .T. ) ;
#49 = AXIS2_PLACEMENT_3D ( 'NONE', #231, #16, #116 ) ;
#50 = DIRECTION ( 'NONE',  ( 3.491481338843133355E-15, -1.224646799147353207E-16, 1.000000000000000000 ) ) ;
#51 = FACE_OUTER_BOUND ( 'NONE', #277, .T. ) ;
#52 = APPROVAL ( #265, 'UNSPECIFIED' ) ;
#53 = FACE_OUTER_BOUND ( 'NONE', #183, .T. ) ;
#54 = CLOSED_SHELL ( 'NONE', ( #27, #140, #91, #138, #46 ) ) ;
#55 = AXIS2_PLACEMENT_3D ( 'NONE', #98, #291, #214 ) ;
#56 = DIRECTION ( 'NONE',  ( 0.0000000000000000000, 1.000000000000000000, 0.0000000000000000000 ) ) ;
#57 = APPROVAL_DATE_TIME ( #123, #66 ) ;
#58 = DIRECTION ( 'NONE',  ( -3.491481338843133355E-15, 1.224646799147353207E-16, -1.000000000000000000 ) ) ;
#59 = ADVANCED_FACE ( 'NONE', ( #30, #28 ), #133, .F. ) ;
#60 = VERTEX_POINT ( 'NONE', #204 ) ;
#61 =( LENGTH_UNIT ( ) NAMED_UNIT ( * ) SI_UNIT ( .MILLI., .METRE. ) );
#62 = CARTESIAN_POINT ( 'NONE',  ( 1.501336975702547217E-13, 7.498798913309222353E-33, 43.00000000000000000 ) ) ;
#63 = AXIS2_PLACEMENT_3D ( 'NONE', #289, #73, #146 ) ;
#64 = EDGE_LOOP ( 'NONE', ( #163 ) ) ;
#65 = ORIENTED_EDGE ( 'NONE', *, *, #236, .F. ) ;
#66 = APPROVAL ( #29, 'UNSPECIFIED' ) ;
#67 = CARTESIAN_POINT ( 'NONE',  ( 1.492608272355439415E-13, -5.235365066354933894E-15, 42.74999999999999289 ) ) ;
#68 = CONICAL_SURFACE ( 'NONE', #110, 1.249999999999996225, 0.2617993877991410256 ) ;
#69 = ORIENTED_EDGE ( 'NONE', *, *, #74, .F. ) ;
#70 = EDGE_LOOP ( 'NONE', ( #65 ) ) ;
#71 = FACE_OUTER_BOUND ( 'NONE', #228, .T. ) ;
#72 = SECURITY_CLASSIFICATION_LEVEL ( 'unclassified' ) ;
#73 = DIRECTION ( 'NONE',  ( 3.491481338843133355E-15, -1.224646799147353207E-16, 1.000000000000000000 ) ) ;
#74 = EDGE_CURVE ( 'NONE', #271, #271, #147, .T. ) ;
#75 = DIRECTION ( 'NONE',  ( 3.753031672107701038E-31, 1.000000000000000000, 1.056384502500869495E-16 ) ) ;
#76 = CARTESIAN_POINT ( 'NONE',  ( 2.793185071074506684E-14, -9.797174393178825657E-16, 8.000000000000000000 ) ) ;
#77 = PERSON_AND_ORGANIZATION_ROLE ( 'creator' ) ;
#78 = AXIS2_PLACEMENT_3D ( 'NONE', #216, #4, #75 ) ;
#79 = EDGE_CURVE ( 'NONE', #134, #134, #175, .T. ) ;
#80 = DIRECTION ( 'NONE',  ( 3.491481338843133355E-15, -1.224646799147353207E-16, 1.000000000000000000 ) ) ;
#81 = FACE_BOUND ( 'NONE', #14, .T. ) ;
#82 = DIRECTION ( 'NONE',  ( -3.491481338843133355E-15, 1.224646799147353207E-16, -1.000000000000000000 ) ) ;
#83 = PRODUCT_DEFINITION_SHAPE ( 'NONE', 'NONE',  #262 ) ;
#84 = LOCAL_TIME ( 11, 54, 18.00000000000000000, #26 ) ;
#85 = CARTESIAN_POINT ( 'NONE',  ( 2.618611004132350016E-15, -9.184850993605149670E-17, 0.7500000000000000000 ) ) ;
#86 = CC_DESIGN_DATE_AND_TIME_ASSIGNMENT ( #126, #221, ( #262 ) ) ;
#87 = CARTESIAN_POINT ( 'NONE',  ( -3.838239134266277137E-31, 1.346273061192634925E-32, -1.099315379854797802E-16 ) ) ;
#88 = DIRECTION ( 'NONE',  ( 1.000000000000000000, 0.0000000000000000000, 0.0000000000000000000 ) ) ;
#89 = AXIS2_PLACEMENT_3D ( 'NONE', #62, #181, #156 ) ;
#90 = AXIS2_PLACEMENT_3D ( 'NONE', #168, #293, #23 ) ;
#91 = ADVANCED_FACE ( 'NONE', ( #25, #259 ), #186, .T. ) ;
#92 = ORIENTED_EDGE ( 'NONE', *, *, #74, .T. ) ;
#93 = EDGE_LOOP ( 'NONE', ( #69 ) ) ;
#94 = CC_DESIGN_APPROVAL ( #285, ( #17 ) ) ;
#95 = CIRCLE ( 'NONE', #78, 1.026332902384292645 ) ;
#96 = CYLINDRICAL_SURFACE ( 'NONE', #161, 1.107999999999999652 ) ;
#97 = PERSON ( 'UNSPECIFIED', 'UNSPECIFIED', 'UNSPECIFIED', ('UNSPECIFIED'), ('UNSPECIFIED'), ('UNSPECIFIED') ) ;
#98 = CARTESIAN_POINT ( 'NONE',  ( 3.323065578181345185E-14, -1.165574502261251349E-15, 9.517638090205027268 ) ) ;
#99 = DIRECTION ( 'NONE',  ( 4.275831445896959482E-31, 1.000000000000000000, 1.224646799147353454E-16 ) ) ;
#100 = APPROVAL_STATUS ( 'not_yet_approved' ) ;
#101 = DIRECTION ( 'NONE',  ( 0.0000000000000000000, 1.000000000000000000, 0.0000000000000000000 ) ) ;
#102 = PERSON_AND_ORGANIZATION_ROLE ( 'design_owner' ) ;
#103 = CARTESIAN_POINT ( 'NONE',  ( 0.0000000000000000000, 0.0000000000000000000, 0.0000000000000000000 ) ) ;
#104 = APPROVAL_DATE_TIME ( #31, #285 ) ;
#105 = CARTESIAN_POINT ( 'NONE',  ( 1.501336975702547217E-13, 0.9999999999999963363, 43.00000000000000000 ) ) ;
#106 = CONICAL_SURFACE ( 'NONE', #33, 1.000000000000001554, 0.7853981633974479459 ) ;
#107 = CARTESIAN_POINT ( 'NONE',  ( 1.501336975702547217E-13, -5.265981236333618470E-15, 43.00000000000000000 ) ) ;
#108 = CARTESIAN_POINT ( 'NONE',  ( 3.323065578181345185E-14, 1.176148347421859697, 9.517638090205027268 ) ) ;
#109 = EDGE_CURVE ( 'NONE', #112, #112, #226, .T. ) ;
#110 = AXIS2_PLACEMENT_3D ( 'NONE', #159, #80, #251 ) ;
#111 = AXIS2_PLACEMENT_3D ( 'NONE', #76, #237, #218 ) ;
#112 = VERTEX_POINT ( 'NONE', #275 ) ;
#113 = EDGE_CURVE ( 'NONE', #60, #60, #95, .T. ) ;
#114 = ORIENTED_EDGE ( 'NONE', *, *, #19, .T. ) ;
#115 = ORIENTED_EDGE ( 'NONE', *, *, #109, .T. ) ;
#116 = DIRECTION ( 'NONE',  ( 4.275831445896957731E-31, 1.000000000000000000, 1.224646799147352961E-16 ) ) ;
#117 = ORIENTED_EDGE ( 'NONE', *, *, #247, .F. ) ;
#118 = AXIS2_PLACEMENT_3D ( 'NONE', #103, #189, #99 ) ;
#119 = ORIENTED_EDGE ( 'NONE', *, *, #79, .F. ) ;
#120 = DIRECTION ( 'NONE',  ( -3.476407841854219326E-31, -1.000000000000000000, -9.785218163226582715E-17 ) ) ;
#121 = PERSON_AND_ORGANIZATION ( #97, #132 ) ;
#122 = CARTESIAN_POINT ( 'NONE',  ( 3.419297130319938209E-14, -1.199327987062220727E-15, 9.793256209849563021 ) ) ;
#123 = DATE_AND_TIME ( #8, #206 ) ;
#124 = LOCAL_TIME ( 11, 54, 18.00000000000000000, #284 ) ;
#125 = FACE_OUTER_BOUND ( 'NONE', #299, .T. ) ;
#126 = DATE_AND_TIME ( #290, #84 ) ;
#127 = CALENDAR_DATE ( 2021, 17, 12 ) ;
#128 = CARTESIAN_POINT ( 'NONE',  ( 2.618611004132350016E-15, -9.184850993605149670E-17, 0.7500000000000000000 ) ) ;
#129 = CARTESIAN_POINT ( 'NONE',  ( 2.618611004132350411E-15, 1.107999999999998986, 0.7500000000000001110 ) ) ;
#130 = CIRCLE ( 'NONE', #298, 1.000000000000001554 ) ;
#131 = VERTEX_POINT ( 'NONE', #105 ) ;
#132 = ORGANIZATION ( 'UNSPECIFIED', 'UNSPECIFIED', '' ) ;
#133 = TOROIDAL_SURFACE ( 'NONE', #281, 3.108000000000000096, 2.000000000000000000 ) ;
#134 = VERTEX_POINT ( 'NONE', #108 ) ;
#135 = ADVANCED_FACE ( 'NONE', ( #220, #125 ), #169, .T. ) ;
#136 = ORIENTED_EDGE ( 'NONE', *, *, #254, .T. ) ;
#137 = FACE_OUTER_BOUND ( 'NONE', #47, .T. ) ;
#138 = ADVANCED_FACE ( 'NONE', ( #241, #170 ), #96, .T. ) ;
#139 = CARTESIAN_POINT ( 'NONE',  ( -1.919119567133138569E-31, 6.731365305963174625E-33, -5.496576899273989009E-17 ) ) ;
#140 = ADVANCED_FACE ( 'NONE', ( #148, #48 ), #200, .T. ) ;
#141 = APPROVAL_DATE_TIME ( #294, #52 ) ;
#142 = CARTESIAN_POINT ( 'NONE',  ( 3.142333204958820020E-14, -1.301042606982605321E-15, 9.000000000000000000 ) ) ;
#143 = PERSON_AND_ORGANIZATION_ROLE ( 'classification_officer' ) ;
#144 = DIRECTION ( 'NONE',  ( -4.275831445896958607E-31, -1.000000000000000000, -1.224646799147353207E-16 ) ) ;
#145 =( GEOMETRIC_REPRESENTATION_CONTEXT ( 3 ) GLOBAL_UNCERTAINTY_ASSIGNED_CONTEXT ( ( #274 ) ) GLOBAL_UNIT_ASSIGNED_CONTEXT ( ( #61, #35, #158 ) ) REPRESENTATION_CONTEXT ( 'NONE', 'WORKASPACE' ) );
#146 = DIRECTION ( 'NONE',  ( -3.753031672107701038E-31, -1.000000000000000000, -1.056384502500869495E-16 ) ) ;
#147 = CIRCLE ( 'NONE', #11, 1.108000000000000096 ) ;
#148 = FACE_BOUND ( 'NONE', #45, .T. ) ;
#149 = COORDINATED_UNIVERSAL_TIME_OFFSET ( 1, 0, .AHEAD. ) ;
#150 = CARTESIAN_POINT ( 'NONE',  ( 2.793185071074506684E-14, 1.107999999999998986, 8.000000000000000000 ) ) ;
#151 = PRODUCT ( '974959', '974959', '', ( #227 ) ) ;
#152 = CARTESIAN_POINT ( 'NONE',  ( 1.501336975702547217E-13, -5.265981236333618470E-15, 43.00000000000000000 ) ) ;
#153 = APPROVAL_PERSON_ORGANIZATION ( #167, #285, #22 ) ;
#154 = AXIS2_PLACEMENT_3D ( 'NONE', #139, #286, #234 ) ;
#155 = CC_DESIGN_PERSON_AND_ORGANIZATION_ASSIGNMENT ( #171, #102, ( #151 ) ) ;
#156 = DIRECTION ( 'NONE',  ( 4.275831445896958607E-31, 1.000000000000000000, 1.224646799147353207E-16 ) ) ;
#157 = DESIGN_CONTEXT ( 'detailed design', #249, 'design' ) ;
#158 =( NAMED_UNIT ( * ) SI_UNIT ( $, .STERADIAN. ) SOLID_ANGLE_UNIT ( ) );
#159 = CARTESIAN_POINT ( 'NONE',  ( 3.419297130319938209E-14, -1.199327987062220727E-15, 9.793256209849563021 ) ) ;
#160 = AXIS2_PLACEMENT_3D ( 'NONE', #85, #82, #203 ) ;
#161 = AXIS2_PLACEMENT_3D ( 'NONE', #192, #263, #264 ) ;
#162 = ORIENTED_EDGE ( 'NONE', *, *, #113, .T. ) ;
#163 = ORIENTED_EDGE ( 'NONE', *, *, #113, .F. ) ;
#164 = DIRECTION ( 'NONE',  ( 0.0000000000000000000, 1.000000000000000000, 0.0000000000000000000 ) ) ;
#165 = EDGE_LOOP ( 'NONE', ( #162 ) ) ;
#166 = ADVANCED_BREP_SHAPE_REPRESENTATION ( '974959', ( #39, #244, #270 ), #145 ) ;
#167 = PERSON_AND_ORGANIZATION ( #97, #132 ) ;
#168 = CARTESIAN_POINT ( 'NONE',  ( 2.793185071074506684E-14, 8.308669195946674890E-33, 8.000000000000000000 ) ) ;
#169 = CYLINDRICAL_SURFACE ( 'NONE', #118, 1.249999999999998890 ) ;
#170 = FACE_OUTER_BOUND ( 'NONE', #211, .T. ) ;
#171 = PERSON_AND_ORGANIZATION ( #97, #132 ) ;
#172 = CC_DESIGN_APPROVAL ( #52, ( #262 ) ) ;
#173 = CIRCLE ( 'NONE', #223, 1.108000000000000096 ) ;
#174 = PLANE ( 'NONE',  #89 ) ;
#175 = CIRCLE ( 'NONE', #55, 1.176148347421860807 ) ;
#176 = FACE_BOUND ( 'NONE', #303, .T. ) ;
#177 = CC_DESIGN_PERSON_AND_ORGANIZATION_ASSIGNMENT ( #233, #143, ( #17 ) ) ;
#178 = DIRECTION ( 'NONE',  ( -3.491481338843133355E-15, 1.224646799147353207E-16, -1.000000000000000000 ) ) ;
#179 = ORIENTED_EDGE ( 'NONE', *, *, #195, .T. ) ;
#180 = DIRECTION ( 'NONE',  ( -3.491481338843133355E-15, 1.224646799147353207E-16, -1.000000000000000000 ) ) ;
#181 = DIRECTION ( 'NONE',  ( -3.491481338843133355E-15, 1.224646799147353207E-16, -1.000000000000000000 ) ) ;
#182 = EDGE_LOOP ( 'NONE', ( #115 ) ) ;
#183 = EDGE_LOOP ( 'NONE', ( #136 ) ) ;
#184 = ORIENTED_EDGE ( 'NONE', *, *, #254, .F. ) ;
#185 = CC_DESIGN_APPROVAL ( #66, ( #43 ) ) ;
#186 = CONICAL_SURFACE ( 'NONE', #266, 1.107999999999998986, 0.1919862177193700781 ) ;
#187 = ORIENTED_EDGE ( 'NONE', *, *, #1, .F. ) ;
#188 = ADVANCED_FACE ( 'NONE', ( #51 ), #239, .F. ) ;
#189 = DIRECTION ( 'NONE',  ( -3.491481338843133355E-15, 1.224646799147353207E-16, -1.000000000000000000 ) ) ;
#190 = PLANE ( 'NONE',  #154 ) ;
#191 = PERSON_AND_ORGANIZATION ( #97, #132 ) ;
#192 = CARTESIAN_POINT ( 'NONE',  ( 0.0000000000000000000, 0.0000000000000000000, 0.0000000000000000000 ) ) ;
#193 = PERSON_AND_ORGANIZATION ( #97, #132 ) ;
#194 = PLANE ( 'NONE',  #90 ) ;
#195 = EDGE_CURVE ( 'NONE', #9, #9, #238, .T. ) ;
#196 = APPLICATION_PROTOCOL_DEFINITION ( 'international standard', 'config_control_design', 1994, #249 ) ;
#197 = DIRECTION ( 'NONE',  ( 3.491481338843133355E-15, -1.224646799147353207E-16, 1.000000000000000000 ) ) ;
#198 = AXIS2_PLACEMENT_3D ( 'NONE', #87, #178, #248 ) ;
#199 = VERTEX_POINT ( 'NONE', #129 ) ;
#200 = CONICAL_SURFACE ( 'NONE', #63, 1.026332902384292645, 1.047197551196592524 ) ;
#201 = CC_DESIGN_PERSON_AND_ORGANIZATION_ASSIGNMENT ( #121, #215, ( #43 ) ) ;
#202 = DIRECTION ( 'NONE',  ( 0.0000000000000000000, 1.000000000000000000, 0.0000000000000000000 ) ) ;
#203 = DIRECTION ( 'NONE',  ( 3.476407841854219326E-31, 1.000000000000000000, 9.785218163226582715E-17 ) ) ;
#204 = CARTESIAN_POINT ( 'NONE',  ( 1.151697258662859327E-15, 1.026332902384292645, 0.3298592049884655486 ) ) ;
#205 = APPLICATION_PROTOCOL_DEFINITION ( 'international standard', 'config_control_design', 1994, #301 ) ;
#206 = LOCAL_TIME ( 11, 54, 18.00000000000000000, #149 ) ;
#207 = ORIENTED_EDGE ( 'NONE', *, *, #1, .T. ) ;
#208 = CLOSED_SHELL ( 'NONE', ( #188, #15, #59, #276, #135, #282, #229 ) ) ;
#209 = EDGE_LOOP ( 'NONE', ( #117 ) ) ;
#210 = CARTESIAN_POINT ( 'NONE',  ( 3.142333204958820020E-14, -1.102182119232617714E-15, 9.000000000000000000 ) ) ;
#211 = EDGE_LOOP ( 'NONE', ( #179 ) ) ;
#212 = AXIS2_PLACEMENT_3D ( 'NONE', #122, #222, #101 ) ;
#213 = CALENDAR_DATE ( 2021, 17, 12 ) ;
#214 = DIRECTION ( 'NONE',  ( 0.0000000000000000000, 1.000000000000000000, 0.0000000000000000000 ) ) ;
#215 = PERSON_AND_ORGANIZATION_ROLE ( 'creator' ) ;
#216 = CARTESIAN_POINT ( 'NONE',  ( 1.151697258662858933E-15, -4.039610195584148563E-17, 0.3298592049884654376 ) ) ;
#217 = CALENDAR_DATE ( 2021, 17, 12 ) ;
#218 = DIRECTION ( 'NONE',  ( 0.0000000000000000000, 1.000000000000000000, 0.0000000000000000000 ) ) ;
#219 = PERSON_AND_ORGANIZATION_ROLE ( 'design_supplier' ) ;
#220 = FACE_OUTER_BOUND ( 'NONE', #230, .T. ) ;
#221 = DATE_TIME_ROLE ( 'creation_date' ) ;
#222 = DIRECTION ( 'NONE',  ( -3.491481338843133355E-15, 1.224646799147353207E-16, -1.000000000000000000 ) ) ;
#223 = AXIS2_PLACEMENT_3D ( 'NONE', #210, #232, #56 ) ;
#224 = CARTESIAN_POINT ( 'NONE',  ( -1.892735826383160919E-31, 0.4550000000000000155, -5.421010862427520937E-17 ) ) ;
#225 = AXIS2_PLACEMENT_3D ( 'NONE', #67, #44, #164 ) ;
#226 = CIRCLE ( 'NONE', #212, 1.249999999999996225 ) ;
#227 = MECHANICAL_CONTEXT ( 'NONE', #301, 'mechanical' ) ;
#228 = EDGE_LOOP ( 'NONE', ( #18 ) ) ;
#229 = ADVANCED_FACE ( 'NONE', ( #6 ), #174, .F. ) ;
#230 = EDGE_LOOP ( 'NONE', ( #279 ) ) ;
#231 = CARTESIAN_POINT ( 'NONE',  ( 0.0000000000000000000, 0.0000000000000000000, 0.0000000000000000000 ) ) ;
#232 = DIRECTION ( 'NONE',  ( -3.491481338843133355E-15, 1.224646799147353207E-16, -1.000000000000000000 ) ) ;
#233 = PERSON_AND_ORGANIZATION ( #97, #132 ) ;
#234 = DIRECTION ( 'NONE',  ( -4.275831445896958607E-31, -1.000000000000000000, -1.224646799147353207E-16 ) ) ;
#235 = APPROVAL_ROLE ( '' ) ;
#236 = EDGE_CURVE ( 'NONE', #131, #131, #130, .T. ) ;
#237 = DIRECTION ( 'NONE',  ( -3.491481338843133355E-15, 1.224646799147353207E-16, -1.000000000000000000 ) ) ;
#238 = CIRCLE ( 'NONE', #111, 1.108000000000000096 ) ;
#239 = PLANE ( 'NONE',  #20 ) ;
#240 = PERSON_AND_ORGANIZATION ( #97, #132 ) ;
#241 = FACE_OUTER_BOUND ( 'NONE', #209, .T. ) ;
#242 = PRODUCT_RELATED_PRODUCT_CATEGORY ( 'detail', '', ( #151 ) ) ;
#243 = COORDINATED_UNIVERSAL_TIME_OFFSET ( 1, 0, .AHEAD. ) ;
#244 = MANIFOLD_SOLID_BREP ( 'Corps-Déplacer/Copier1[2]', #54 ) ;
#245 = LOCAL_TIME ( 11, 54, 18.00000000000000000, #243 ) ;
#246 = VERTEX_POINT ( 'NONE', #224 ) ;
#247 = EDGE_CURVE ( 'NONE', #199, #199, #302, .T. ) ;
#248 = DIRECTION ( 'NONE',  ( 4.275831445896957731E-31, 1.000000000000000000, 1.224646799147353207E-16 ) ) ;
#249 = APPLICATION_CONTEXT ( 'configuration controlled 3d designs of mechanical parts and assemblies' ) ;
#250 = CC_DESIGN_SECURITY_CLASSIFICATION ( #17, ( #43 ) ) ;
#251 = DIRECTION ( 'NONE',  ( 0.0000000000000000000, -1.000000000000000000, 0.0000000000000000000 ) ) ;
#252 = CARTESIAN_POINT ( 'NONE',  ( 0.0000000000000000000, 0.0000000000000000000, 0.0000000000000000000 ) ) ;
#253 = ORIENTED_EDGE ( 'NONE', *, *, #247, .T. ) ;
#254 = EDGE_CURVE ( 'NONE', #246, #246, #13, .T. ) ;
#255 = EDGE_LOOP ( 'NONE', ( #253 ) ) ;
#256 = APPROVAL_PERSON_ORGANIZATION ( #191, #66, #292 ) ;
#257 = FACE_OUTER_BOUND ( 'NONE', #93, .T. ) ;
#258 = CYLINDRICAL_SURFACE ( 'NONE', #49, 1.108000000000000096 ) ;
#259 = FACE_OUTER_BOUND ( 'NONE', #255, .T. ) ;
#260 = PERSON_AND_ORGANIZATION ( #97, #132 ) ;
#261 = DIRECTION ( 'NONE',  ( -3.491481338843133355E-15, 1.224646799147353207E-16, -1.000000000000000000 ) ) ;
#262 = PRODUCT_DEFINITION ( 'UNKNOWN', '', #43, #157 ) ;
#263 = DIRECTION ( 'NONE',  ( -3.491481338843133355E-15, 1.224646799147353207E-16, -1.000000000000000000 ) ) ;
#264 = DIRECTION ( 'NONE',  ( 4.275831445896957731E-31, 1.000000000000000000, 1.224646799147353207E-16 ) ) ;
#265 = APPROVAL_STATUS ( 'not_yet_approved' ) ;
#266 = AXIS2_PLACEMENT_3D ( 'NONE', #128, #50, #120 ) ;
#267 = DIRECTION ( 'NONE',  ( 4.275831445896958607E-31, 1.000000000000000000, 1.224646799147353207E-16 ) ) ;
#268 = DIRECTION ( 'NONE',  ( 0.0000000000000000000, 1.000000000000000000, 0.0000000000000000000 ) ) ;
#269 = CARTESIAN_POINT ( 'NONE',  ( 2.793185071074506684E-14, 1.107999999999998986, 8.000000000000000000 ) ) ;
#270 = AXIS2_PLACEMENT_3D ( 'NONE', #252, #40, #88 ) ;
#271 = VERTEX_POINT ( 'NONE', #150 ) ;
#272 = ORIENTED_EDGE ( 'NONE', *, *, #236, .T. ) ;
#273 = CC_DESIGN_PERSON_AND_ORGANIZATION_ASSIGNMENT ( #260, #219, ( #43 ) ) ;
#274 = UNCERTAINTY_MEASURE_WITH_UNIT (LENGTH_MEASURE( 1.000000000000000082E-05 ), #61, 'distance_accuracy_value', 'NONE');
#275 = CARTESIAN_POINT ( 'NONE',  ( 3.419297130319938209E-14, 1.249999999999994893, 9.793256209849563021 ) ) ;
#276 = ADVANCED_FACE ( 'NONE', ( #81, #32 ), #68, .T. ) ;
#277 = EDGE_LOOP ( 'NONE', ( #92 ) ) ;
#278 = EDGE_LOOP ( 'NONE', ( #42 ) ) ;
#279 = ORIENTED_EDGE ( 'NONE', *, *, #109, .F. ) ;
#280 = APPROVAL_PERSON_ORGANIZATION ( #193, #52, #235 ) ;
#281 = AXIS2_PLACEMENT_3D ( 'NONE', #142, #283, #267 ) ;
#282 = ADVANCED_FACE ( 'NONE', ( #38, #176 ), #106, .T. ) ;
#283 = DIRECTION ( 'NONE',  ( -3.491481338843133355E-15, 1.224646799147353207E-16, -1.000000000000000000 ) ) ;
#284 = COORDINATED_UNIVERSAL_TIME_OFFSET ( 1, 0, .AHEAD. ) ;
#285 = APPROVAL ( #100, 'UNSPECIFIED' ) ;
#286 = DIRECTION ( 'NONE',  ( 3.491481338843133355E-15, -1.224646799147353207E-16, 1.000000000000000000 ) ) ;
#287 = COORDINATED_UNIVERSAL_TIME_OFFSET ( 1, 0, .AHEAD. ) ;
#288 = CIRCLE ( 'NONE', #225, 1.250000000000001554 ) ;
#289 = CARTESIAN_POINT ( 'NONE',  ( 1.151697258662858933E-15, -4.039610195584148563E-17, 0.3298592049884654376 ) ) ;
#290 = CALENDAR_DATE ( 2021, 17, 12 ) ;
#291 = DIRECTION ( 'NONE',  ( -3.491481338843133355E-15, 1.224646799147353207E-16, -1.000000000000000000 ) ) ;
#292 = APPROVAL_ROLE ( '' ) ;
#293 = DIRECTION ( 'NONE',  ( 3.491481338843133355E-15, -1.224646799147353207E-16, 1.000000000000000000 ) ) ;
#294 = DATE_AND_TIME ( #217, #10 ) ;
#295 = VERTEX_POINT ( 'NONE', #296 ) ;
#296 = CARTESIAN_POINT ( 'NONE',  ( 3.142333204958820020E-14, 1.107999999999998986, 9.000000000000000000 ) ) ;
#297 = CC_DESIGN_PERSON_AND_ORGANIZATION_ASSIGNMENT ( #240, #77, ( #262 ) ) ;
#298 = AXIS2_PLACEMENT_3D ( 'NONE', #107, #58, #202 ) ;
#299 = EDGE_LOOP ( 'NONE', ( #207 ) ) ;
#300 = EDGE_LOOP ( 'NONE', ( #187 ) ) ;
#301 = APPLICATION_CONTEXT ( 'configuration controlled 3d designs of mechanical parts and assemblies' ) ;
#302 = CIRCLE ( 'NONE', #160, 1.107999999999998986 ) ;
#303 = EDGE_LOOP ( 'NONE', ( #272 ) ) ;
ENDSEC;
END-ISO-10303-21;
