ISO-10303-21;
HEADER;
FILE_DESCRIPTION (( 'STEP AP203' ),
    '1' );
FILE_NAME ('974805.step',
    '2021-11-16T09:15:49',
    ( '' ),
    ( '' ),
    'SwSTEP 2.0',
    'SolidWorks 2019',
    '' );
FILE_SCHEMA (( 'CONFIG_CONTROL_DESIGN' ));
ENDSEC;

DATA;
#1 = CARTESIAN_POINT ( 'NONE',  ( -4.180328558508823813E-31, -4.336808689942017736E-16, -1.197293685062035137E-16 ) ) ;
#2 = CIRCLE ( 'NONE', #121, 1.499999999999999112 ) ;
#3 = CARTESIAN_POINT ( 'NONE',  ( -6.413747168845439661E-31, -4.336808689942017736E-16, -1.836970198721030181E-16 ) ) ;
#4 = FACE_OUTER_BOUND ( 'NONE', #136, .T. ) ;
#5 = CARTESIAN_POINT ( 'NONE',  ( 2.228241503965249553E-14, -5.398896253422387754E-16, 6.381937314617166734 ) ) ;
#6 = CARTESIAN_POINT ( 'NONE',  ( 1.316288464743860707E-13, -4.616918432785519503E-15, 37.69999999999998153 ) ) ;
#7 = APPROVAL_PERSON_ORGANIZATION ( #85, #32, #97 ) ;
#8 = ADVANCED_FACE ( 'NONE', ( #47, #134 ), #189, .F. ) ;
#9 = CARTESIAN_POINT ( 'NONE',  ( 1.047444401652939691E-14, -0.7500000000000024425, 2.999999999999999112 ) ) ;
#10 = EDGE_CURVE ( 'NONE', #145, #145, #212, .T. ) ;
#11 = PERSON_AND_ORGANIZATION_ROLE ( 'creator' ) ;
#12 = ORIENTED_EDGE ( 'NONE', *, *, #10, .T. ) ;
#13 = AXIS2_PLACEMENT_3D ( 'NONE', #140, #78, #190 ) ;
#14 = COORDINATED_UNIVERSAL_TIME_OFFSET ( 1, 0, .AHEAD. ) ;
#15 = DIRECTION ( 'NONE',  ( 3.491481338843133355E-15, -1.596391580082713105E-16, 1.000000000000000000 ) ) ;
#16 = FACE_OUTER_BOUND ( 'NONE', #164, .T. ) ;
#17 = DIRECTION ( 'NONE',  ( 3.491481338843133355E-15, -1.224646799147353207E-16, 1.000000000000000000 ) ) ;
#18 = AXIS2_PLACEMENT_3D ( 'NONE', #174, #124, #146 ) ;
#19 = PERSON ( 'UNSPECIFIED', 'UNSPECIFIED', 'UNSPECIFIED', ('UNSPECIFIED'), ('UNSPECIFIED'), ('UNSPECIFIED') ) ;
#20 = CARTESIAN_POINT ( 'NONE',  ( 1.326762908760390170E-13, 1.199999999999992628, 37.99999999999999289 ) ) ;
#21 = AXIS2_PLACEMENT_3D ( 'NONE', #6, #91, #170 ) ;
#22 = VERTEX_POINT ( 'NONE', #83 ) ;
#23 = PERSON_AND_ORGANIZATION ( #19, #179 ) ;
#24 = CC_DESIGN_PERSON_AND_ORGANIZATION_ASSIGNMENT ( #176, #54, ( #198 ) ) ;
#25 = DATE_TIME_ROLE ( 'classification_date' ) ;
#26 = AXIS2_PLACEMENT_3D ( 'NONE', #90, #208, #157 ) ;
#27 = ORIENTED_EDGE ( 'NONE', *, *, #10, .F. ) ;
#28 = APPROVAL_ROLE ( '' ) ;
#29 = DATE_TIME_ROLE ( 'creation_date' ) ;
#30 = ORIENTED_EDGE ( 'NONE', *, *, #76, .F. ) ;
#31 = DIRECTION ( 'NONE',  ( -3.491481338843133355E-15, 1.224646799147353207E-16, -1.000000000000000000 ) ) ;
#32 = APPROVAL ( #149, 'UNSPECIFIED' ) ;
#33 = FACE_OUTER_BOUND ( 'NONE', #71, .T. ) ;
#34 = DIRECTION ( 'NONE',  ( -3.491481338843133355E-15, 1.224646799147353207E-16, -1.000000000000000000 ) ) ;
#35 = EDGE_CURVE ( 'NONE', #123, #123, #101, .T. ) ;
#36 = CARTESIAN_POINT ( 'NONE',  ( 1.047444401652940007E-14, 1.124819836996392248E-32, 3.000000000000000000 ) ) ;
#37 =( NAMED_UNIT ( * ) PLANE_ANGLE_UNIT ( ) SI_UNIT ( $, .RADIAN. ) );
#38 = MANIFOLD_SOLID_BREP ( 'Corps-Déplacer/Copier1[2]', #39 ) ;
#39 = CLOSED_SHELL ( 'NONE', ( #219, #166, #196 ) ) ;
#40 = LOCAL_TIME ( 10, 15, 49.00000000000000000, #165 ) ;
#41 = PERSON_AND_ORGANIZATION ( #19, #179 ) ;
#42 = CC_DESIGN_PERSON_AND_ORGANIZATION_ASSIGNMENT ( #151, #182, ( #60 ) ) ;
#43 = ORIENTED_EDGE ( 'NONE', *, *, #160, .F. ) ;
#44 = ORIENTED_EDGE ( 'NONE', *, *, #128, .F. ) ;
#45 = CC_DESIGN_PERSON_AND_ORGANIZATION_ASSIGNMENT ( #56, #220, ( #79 ) ) ;
#46 = APPROVAL_ROLE ( '' ) ;
#47 = FACE_OUTER_BOUND ( 'NONE', #178, .T. ) ;
#48 = PLANE ( 'NONE',  #13 ) ;
#49 = CARTESIAN_POINT ( 'NONE',  ( 0.0000000000000000000, 0.0000000000000000000, 0.0000000000000000000 ) ) ;
#50 = DIRECTION ( 'NONE',  ( 3.491481338843133355E-15, -1.596391580082713105E-16, 1.000000000000000000 ) ) ;
#51 = DIRECTION ( 'NONE',  ( 4.275831445896958607E-31, 1.000000000000000000, 1.224646799147353207E-16 ) ) ;
#52 = AXIS2_PLACEMENT_3D ( 'NONE', #180, #167, #181 ) ;
#53 = PRODUCT_RELATED_PRODUCT_CATEGORY ( 'detail', '', ( #139 ) ) ;
#54 = PERSON_AND_ORGANIZATION_ROLE ( 'classification_officer' ) ;
#55 = EDGE_LOOP ( 'NONE', ( #204 ) ) ;
#56 = PERSON_AND_ORGANIZATION ( #19, #179 ) ;
#57 = PERSON_AND_ORGANIZATION ( #19, #179 ) ;
#58 = DIRECTION ( 'NONE',  ( -3.491481338843133355E-15, 1.224646799147353207E-16, -1.000000000000000000 ) ) ;
#59 = FACE_OUTER_BOUND ( 'NONE', #66, .T. ) ;
#60 = PRODUCT_DEFINITION ( 'UNKNOWN', '', #79, #221 ) ;
#61 = AXIS2_PLACEMENT_3D ( 'NONE', #36, #175, #172 ) ;
#62 = CC_DESIGN_DATE_AND_TIME_ASSIGNMENT ( #177, #25, ( #198 ) ) ;
#63 = CIRCLE ( 'NONE', #26, 0.7500000000000015543 ) ;
#64 = AXIS2_PLACEMENT_3D ( 'NONE', #88, #110, #168 ) ;
#65 = DATE_AND_TIME ( #217, #40 ) ;
#66 = EDGE_LOOP ( 'NONE', ( #27 ) ) ;
#67 = COORDINATED_UNIVERSAL_TIME_OFFSET ( 1, 0, .AHEAD. ) ;
#68 = APPROVAL_DATE_TIME ( #65, #184 ) ;
#69 = CALENDAR_DATE ( 2021, 16, 11 ) ;
#70 =( GEOMETRIC_REPRESENTATION_CONTEXT ( 3 ) GLOBAL_UNCERTAINTY_ASSIGNED_CONTEXT ( ( #133 ) ) GLOBAL_UNIT_ASSIGNED_CONTEXT ( ( #82, #37, #98 ) ) REPRESENTATION_CONTEXT ( 'NONE', 'WORKASPACE' ) );
#71 = EDGE_LOOP ( 'NONE', ( #86 ) ) ;
#72 = DIRECTION ( 'NONE',  ( 0.0000000000000000000, 1.000000000000000000, 0.0000000000000000000 ) ) ;
#73 = CYLINDRICAL_SURFACE ( 'NONE', #161, 1.499999999999999112 ) ;
#74 = APPROVAL_PERSON_ORGANIZATION ( #23, #155, #28 ) ;
#75 = DIRECTION ( 'NONE',  ( -5.573771411345096957E-31, -1.000000000000000000, -1.596391580082713105E-16 ) ) ;
#76 = EDGE_CURVE ( 'NONE', #99, #99, #63, .T. ) ;
#77 = DIRECTION ( 'NONE',  ( -4.275831445896958607E-31, -1.000000000000000000, -1.224646799147353207E-16 ) ) ;
#78 = DIRECTION ( 'NONE',  ( -3.491481338843133355E-15, 1.224646799147353207E-16, -1.000000000000000000 ) ) ;
#79 = PRODUCT_DEFINITION_FORMATION_WITH_SPECIFIED_SOURCE ( 'ANY', '', #139, .NOT_KNOWN. ) ;
#80 = EDGE_CURVE ( 'NONE', #22, #22, #115, .T. ) ;
#81 = CARTESIAN_POINT ( 'NONE',  ( 1.316288464743860707E-13, 1.499999999999994449, 37.69999999999998153 ) ) ;
#82 =( LENGTH_UNIT ( ) NAMED_UNIT ( * ) SI_UNIT ( .MILLI., .METRE. ) );
#83 = CARTESIAN_POINT ( 'NONE',  ( -8.360657117017647625E-31, -0.7500000000000006661, -2.394587370124070274E-16 ) ) ;
#84 = CIRCLE ( 'NONE', #21, 1.499999999999998890 ) ;
#85 = PERSON_AND_ORGANIZATION ( #19, #179 ) ;
#86 = ORIENTED_EDGE ( 'NONE', *, *, #80, .F. ) ;
#87 = DATE_AND_TIME ( #69, #109 ) ;
#88 = CARTESIAN_POINT ( 'NONE',  ( 1.047444401652939691E-14, -9.125983430190156313E-16, 2.999999999999999112 ) ) ;
#89 = CC_DESIGN_APPROVAL ( #32, ( #198 ) ) ;
#90 = CARTESIAN_POINT ( 'NONE',  ( 1.047444401652939691E-14, -9.125983430190156313E-16, 2.999999999999999112 ) ) ;
#91 = DIRECTION ( 'NONE',  ( -3.491481338843133355E-15, 1.224646799147353207E-16, -1.000000000000000000 ) ) ;
#92 = APPROVAL_DATE_TIME ( #114, #32 ) ;
#93 = CC_DESIGN_PERSON_AND_ORGANIZATION_ASSIGNMENT ( #41, #211, ( #139 ) ) ;
#94 = AXIS2_PLACEMENT_3D ( 'NONE', #138, #17, #77 ) ;
#95 = PRODUCT_DEFINITION_SHAPE ( 'NONE', 'NONE',  #60 ) ;
#96 = DIRECTION ( 'NONE',  ( 4.275831445896958607E-31, 1.000000000000000000, 1.224646799147353454E-16 ) ) ;
#97 = APPROVAL_ROLE ( '' ) ;
#98 =( NAMED_UNIT ( * ) SI_UNIT ( $, .STERADIAN. ) SOLID_ANGLE_UNIT ( ) );
#99 = VERTEX_POINT ( 'NONE', #195 ) ;
#100 = ADVANCED_FACE ( 'NONE', ( #120 ), #48, .F. ) ;
#101 = CIRCLE ( 'NONE', #218, 1.199999999999997291 ) ;
#102 = APPLICATION_PROTOCOL_DEFINITION ( 'international standard', 'config_control_design', 1994, #194 ) ;
#103 = MANIFOLD_SOLID_BREP ( 'Corps-Déplacer/Copier1[1]', #173 ) ;
#104 = DATE_AND_TIME ( #112, #209 ) ;
#105 = ADVANCED_BREP_SHAPE_REPRESENTATION ( '974805', ( #103, #38, #18 ), #70 ) ;
#106 = CC_DESIGN_DATE_AND_TIME_ASSIGNMENT ( #87, #29, ( #60 ) ) ;
#107 = APPROVAL_STATUS ( 'not_yet_approved' ) ;
#108 = ORIENTED_EDGE ( 'NONE', *, *, #80, .T. ) ;
#109 = LOCAL_TIME ( 10, 15, 49.00000000000000000, #162 ) ;
#110 = DIRECTION ( 'NONE',  ( 3.491481338843133355E-15, -1.596391580082713105E-16, 1.000000000000000000 ) ) ;
#111 = EDGE_LOOP ( 'NONE', ( #113 ) ) ;
#112 = CALENDAR_DATE ( 2021, 16, 11 ) ;
#113 = ORIENTED_EDGE ( 'NONE', *, *, #76, .T. ) ;
#114 = DATE_AND_TIME ( #118, #130 ) ;
#115 = CIRCLE ( 'NONE', #201, 0.7500000000000002220 ) ;
#116 = DIRECTION ( 'NONE',  ( 0.0000000000000000000, 1.000000000000000000, 0.0000000000000000000 ) ) ;
#117 = ADVANCED_FACE ( 'NONE', ( #158, #4 ), #73, .T. ) ;
#118 = CALENDAR_DATE ( 2021, 16, 11 ) ;
#119 = FACE_OUTER_BOUND ( 'NONE', #148, .T. ) ;
#120 = FACE_OUTER_BOUND ( 'NONE', #55, .T. ) ;
#121 = AXIS2_PLACEMENT_3D ( 'NONE', #5, #15, #116 ) ;
#122 = FACE_OUTER_BOUND ( 'NONE', #202, .T. ) ;
#123 = VERTEX_POINT ( 'NONE', #20 ) ;
#124 = DIRECTION ( 'NONE',  ( 0.0000000000000000000, 0.0000000000000000000, 1.000000000000000000 ) ) ;
#125 = APPROVAL_PERSON_ORGANIZATION ( #57, #184, #46 ) ;
#126 = APPLICATION_CONTEXT ( 'configuration controlled 3d designs of mechanical parts and assemblies' ) ;
#127 = APPROVAL_DATE_TIME ( #104, #155 ) ;
#128 = EDGE_CURVE ( 'NONE', #192, #192, #84, .T. ) ;
#129 = ORIENTED_EDGE ( 'NONE', *, *, #160, .T. ) ;
#130 = LOCAL_TIME ( 10, 15, 49.00000000000000000, #14 ) ;
#131 = ADVANCED_FACE ( 'NONE', ( #159 ), #205, .F. ) ;
#132 = SECURITY_CLASSIFICATION_LEVEL ( 'unclassified' ) ;
#133 = UNCERTAINTY_MEASURE_WITH_UNIT (LENGTH_MEASURE( 1.000000000000000082E-05 ), #82, 'distance_accuracy_value', 'NONE');
#134 = FACE_OUTER_BOUND ( 'NONE', #111, .T. ) ;
#135 = SHAPE_DEFINITION_REPRESENTATION ( #95, #105 ) ;
#136 = EDGE_LOOP ( 'NONE', ( #129 ) ) ;
#137 = AXIS2_PLACEMENT_3D ( 'NONE', #3, #169, #207 ) ;
#138 = CARTESIAN_POINT ( 'NONE',  ( 1.047444401652940007E-14, 1.124819836996392248E-32, 3.000000000000000000 ) ) ;
#139 = PRODUCT ( '974805', '974805', '', ( #143 ) ) ;
#140 = CARTESIAN_POINT ( 'NONE',  ( 1.326762908760390170E-13, 8.998558695971058066E-33, 37.99999999999999289 ) ) ;
#141 = CC_DESIGN_PERSON_AND_ORGANIZATION_ASSIGNMENT ( #215, #11, ( #79 ) ) ;
#142 = CC_DESIGN_APPROVAL ( #155, ( #60 ) ) ;
#143 = MECHANICAL_CONTEXT ( 'NONE', #126, 'mechanical' ) ;
#144 = CARTESIAN_POINT ( 'NONE',  ( 2.228241503965249553E-14, 1.499999999999998668, 6.381937314617166734 ) ) ;
#145 = VERTEX_POINT ( 'NONE', #9 ) ;
#146 = DIRECTION ( 'NONE',  ( 1.000000000000000000, 0.0000000000000000000, 0.0000000000000000000 ) ) ;
#147 = CC_DESIGN_APPROVAL ( #184, ( #79 ) ) ;
#148 = EDGE_LOOP ( 'NONE', ( #44 ) ) ;
#149 = APPROVAL_STATUS ( 'not_yet_approved' ) ;
#150 = EDGE_LOOP ( 'NONE', ( #223 ) ) ;
#151 = PERSON_AND_ORGANIZATION ( #19, #179 ) ;
#152 = AXIS2_PLACEMENT_3D ( 'NONE', #210, #206, #51 ) ;
#153 = EDGE_LOOP ( 'NONE', ( #30 ) ) ;
#154 = EDGE_LOOP ( 'NONE', ( #216 ) ) ;
#155 = APPROVAL ( #107, 'UNSPECIFIED' ) ;
#156 = PLANE ( 'NONE',  #152 ) ;
#157 = DIRECTION ( 'NONE',  ( 0.0000000000000000000, -1.000000000000000000, 0.0000000000000000000 ) ) ;
#158 = FACE_OUTER_BOUND ( 'NONE', #150, .T. ) ;
#159 = FACE_OUTER_BOUND ( 'NONE', #153, .T. ) ;
#160 = EDGE_CURVE ( 'NONE', #213, #213, #2, .T. ) ;
#161 = AXIS2_PLACEMENT_3D ( 'NONE', #49, #34, #96 ) ;
#162 = COORDINATED_UNIVERSAL_TIME_OFFSET ( 1, 0, .AHEAD. ) ;
#163 = AXIS2_PLACEMENT_3D ( 'NONE', #187, #31, #72 ) ;
#164 = EDGE_LOOP ( 'NONE', ( #108 ) ) ;
#165 = COORDINATED_UNIVERSAL_TIME_OFFSET ( 1, 0, .AHEAD. ) ;
#166 = ADVANCED_FACE ( 'NONE', ( #16, #59 ), #186, .T. ) ;
#167 = DIRECTION ( 'NONE',  ( 3.491481338843133355E-15, -1.596391580082713105E-16, 1.000000000000000000 ) ) ;
#168 = DIRECTION ( 'NONE',  ( 0.0000000000000000000, -1.000000000000000000, 0.0000000000000000000 ) ) ;
#169 = DIRECTION ( 'NONE',  ( 3.491481338843133355E-15, -1.596391580082713105E-16, 1.000000000000000000 ) ) ;
#170 = DIRECTION ( 'NONE',  ( 0.0000000000000000000, 1.000000000000000000, 0.0000000000000000000 ) ) ;
#171 = CC_DESIGN_SECURITY_CLASSIFICATION ( #198, ( #79 ) ) ;
#172 = DIRECTION ( 'NONE',  ( -4.275831445896958607E-31, -1.000000000000000000, -1.224646799147353207E-16 ) ) ;
#173 = CLOSED_SHELL ( 'NONE', ( #117, #193, #100, #8, #131 ) ) ;
#174 = CARTESIAN_POINT ( 'NONE',  ( 0.0000000000000000000, 0.0000000000000000000, 0.0000000000000000000 ) ) ;
#175 = DIRECTION ( 'NONE',  ( 3.491481338843133355E-15, -1.224646799147353207E-16, 1.000000000000000000 ) ) ;
#176 = PERSON_AND_ORGANIZATION ( #19, #179 ) ;
#177 = DATE_AND_TIME ( #200, #185 ) ;
#178 = EDGE_LOOP ( 'NONE', ( #43 ) ) ;
#179 = ORGANIZATION ( 'UNSPECIFIED', 'UNSPECIFIED', '' ) ;
#180 = CARTESIAN_POINT ( 'NONE',  ( 1.047444401652939533E-14, 0.0000000000000000000, 2.999999999999998668 ) ) ;
#181 = DIRECTION ( 'NONE',  ( -5.668894853983637700E-31, -1.000000000000000000, -1.596391580082713105E-16 ) ) ;
#182 = PERSON_AND_ORGANIZATION_ROLE ( 'creator' ) ;
#183 = DIRECTION ( 'NONE',  ( 0.0000000000000000000, 1.000000000000000000, 0.0000000000000000000 ) ) ;
#184 = APPROVAL ( #199, 'UNSPECIFIED' ) ;
#185 = LOCAL_TIME ( 10, 15, 49.00000000000000000, #203 ) ;
#186 = CYLINDRICAL_SURFACE ( 'NONE', #137, 0.7500000000000008882 ) ;
#187 = CARTESIAN_POINT ( 'NONE',  ( 1.316288464743860707E-13, -4.616918432785519503E-15, 37.69999999999998153 ) ) ;
#188 = FACE_BOUND ( 'NONE', #154, .T. ) ;
#189 = TOROIDAL_SURFACE ( 'NONE', #52, 8.750000000000000000, 8.000000000000000000 ) ;
#190 = DIRECTION ( 'NONE',  ( 4.275831445896958607E-31, 1.000000000000000000, 1.224646799147353207E-16 ) ) ;
#191 = PLANE ( 'NONE',  #61 ) ;
#192 = VERTEX_POINT ( 'NONE', #81 ) ;
#193 = ADVANCED_FACE ( 'NONE', ( #188, #119 ), #214, .T. ) ;
#194 = APPLICATION_CONTEXT ( 'configuration controlled 3d designs of mechanical parts and assemblies' ) ;
#195 = CARTESIAN_POINT ( 'NONE',  ( 1.047444401652939691E-14, -0.7500000000000024425, 2.999999999999999112 ) ) ;
#196 = ADVANCED_FACE ( 'NONE', ( #33 ), #156, .T. ) ;
#197 = APPLICATION_PROTOCOL_DEFINITION ( 'international standard', 'config_control_design', 1994, #126 ) ;
#198 = SECURITY_CLASSIFICATION ( '', '', #132 ) ;
#199 = APPROVAL_STATUS ( 'not_yet_approved' ) ;
#200 = CALENDAR_DATE ( 2021, 16, 11 ) ;
#201 = AXIS2_PLACEMENT_3D ( 'NONE', #1, #50, #75 ) ;
#202 = EDGE_LOOP ( 'NONE', ( #12 ) ) ;
#203 = COORDINATED_UNIVERSAL_TIME_OFFSET ( 1, 0, .AHEAD. ) ;
#204 = ORIENTED_EDGE ( 'NONE', *, *, #35, .F. ) ;
#205 = PLANE ( 'NONE',  #94 ) ;
#206 = DIRECTION ( 'NONE',  ( -3.491481338843133355E-15, 1.224646799147353207E-16, -1.000000000000000000 ) ) ;
#207 = DIRECTION ( 'NONE',  ( -5.573771411345095205E-31, -1.000000000000000000, -1.596391580082712859E-16 ) ) ;
#208 = DIRECTION ( 'NONE',  ( 3.491481338843133355E-15, -1.596391580082713105E-16, 1.000000000000000000 ) ) ;
#209 = LOCAL_TIME ( 10, 15, 49.00000000000000000, #67 ) ;
#210 = CARTESIAN_POINT ( 'NONE',  ( -3.206873584422718517E-31, 1.124819836996392932E-32, -9.184850993605147205E-17 ) ) ;
#211 = PERSON_AND_ORGANIZATION_ROLE ( 'design_owner' ) ;
#212 = CIRCLE ( 'NONE', #64, 0.7500000000000015543 ) ;
#213 = VERTEX_POINT ( 'NONE', #144 ) ;
#214 = CONICAL_SURFACE ( 'NONE', #163, 1.499999999999998890, 0.7853981633974367327 ) ;
#215 = PERSON_AND_ORGANIZATION ( #19, #179 ) ;
#216 = ORIENTED_EDGE ( 'NONE', *, *, #35, .T. ) ;
#217 = CALENDAR_DATE ( 2021, 16, 11 ) ;
#218 = AXIS2_PLACEMENT_3D ( 'NONE', #222, #58, #183 ) ;
#219 = ADVANCED_FACE ( 'NONE', ( #122 ), #191, .T. ) ;
#220 = PERSON_AND_ORGANIZATION_ROLE ( 'design_supplier' ) ;
#221 = DESIGN_CONTEXT ( 'detailed design', #194, 'design' ) ;
#222 = CARTESIAN_POINT ( 'NONE',  ( 1.326762908760390170E-13, -4.653657836759941152E-15, 37.99999999999999289 ) ) ;
#223 = ORIENTED_EDGE ( 'NONE', *, *, #128, .T. ) ;
ENDSEC;
END-ISO-10303-21;
