ISO-10303-21;
HEADER;
FILE_DESCRIPTION (( 'STEP AP203' ),
    '1' );
FILE_NAME ('974804.step',
    '2021-11-16T09:15:48',
    ( '' ),
    ( '' ),
    'SwSTEP 2.0',
    'SolidWorks 2019',
    '' );
FILE_SCHEMA (( 'CONFIG_CONTROL_DESIGN' ));
ENDSEC;

DATA;
#1 = DIRECTION ( 'NONE',  ( -3.491481338843133355E-15, 1.224646799147353207E-16, -1.000000000000000000 ) ) ;
#2 = CARTESIAN_POINT ( 'NONE',  ( 1.326762908760390170E-13, 8.998558695971058066E-33, 37.99999999999999289 ) ) ;
#3 = CC_DESIGN_PERSON_AND_ORGANIZATION_ASSIGNMENT ( #98, #23, ( #25 ) ) ;
#4 = FACE_OUTER_BOUND ( 'NONE', #51, .T. ) ;
#5 = FACE_OUTER_BOUND ( 'NONE', #34, .T. ) ;
#6 = CARTESIAN_POINT ( 'NONE',  ( 1.396592535537252080E-14, -1.072237501027286523E-15, 3.999999999999996447 ) ) ;
#7 = CC_DESIGN_PERSON_AND_ORGANIZATION_ASSIGNMENT ( #71, #130, ( #39 ) ) ;
#8 = APPLICATION_CONTEXT ( 'configuration controlled 3d designs of mechanical parts and assemblies' ) ;
#9 = CC_DESIGN_DATE_AND_TIME_ASSIGNMENT ( #196, #49, ( #25 ) ) ;
#10 = ORIENTED_EDGE ( 'NONE', *, *, #96, .T. ) ;
#11 = FACE_OUTER_BOUND ( 'NONE', #176, .T. ) ;
#12 = EDGE_LOOP ( 'NONE', ( #105 ) ) ;
#13 = EDGE_LOOP ( 'NONE', ( #15 ) ) ;
#14 = AXIS2_PLACEMENT_3D ( 'NONE', #222, #136, #219 ) ;
#15 = ORIENTED_EDGE ( 'NONE', *, *, #194, .T. ) ;
#16 = DIRECTION ( 'NONE',  ( 0.0000000000000000000, 1.000000000000000000, 0.0000000000000000000 ) ) ;
#17 = EDGE_CURVE ( 'NONE', #184, #184, #124, .T. ) ;
#18 = DIRECTION ( 'NONE',  ( -4.275831445896958607E-31, -1.000000000000000000, -1.224646799147353207E-16 ) ) ;
#19 = APPROVAL_PERSON_ORGANIZATION ( #100, #54, #188 ) ;
#20 = CARTESIAN_POINT ( 'NONE',  ( 1.396592535537251607E-14, 0.0000000000000000000, 3.999999999999994671 ) ) ;
#21 = AXIS2_PLACEMENT_3D ( 'NONE', #6, #62, #109 ) ;
#22 = DATE_AND_TIME ( #193, #99 ) ;
#23 = PERSON_AND_ORGANIZATION_ROLE ( 'creator' ) ;
#24 = CALENDAR_DATE ( 2021, 16, 11 ) ;
#25 = PRODUCT_DEFINITION ( 'UNKNOWN', '', #39, #120 ) ;
#26 = FACE_OUTER_BOUND ( 'NONE', #118, .T. ) ;
#27 = PERSON_AND_ORGANIZATION ( #123, #69 ) ;
#28 = ORIENTED_EDGE ( 'NONE', *, *, #131, .T. ) ;
#29 = PRODUCT_DEFINITION_SHAPE ( 'NONE', 'NONE',  #25 ) ;
#30 = PERSON_AND_ORGANIZATION_ROLE ( 'design_supplier' ) ;
#31 = EDGE_CURVE ( 'NONE', #139, #139, #73, .T. ) ;
#32 = ORIENTED_EDGE ( 'NONE', *, *, #131, .F. ) ;
#33 = DATE_AND_TIME ( #114, #163 ) ;
#34 = EDGE_LOOP ( 'NONE', ( #28 ) ) ;
#35 = CC_DESIGN_SECURITY_CLASSIFICATION ( #211, ( #39 ) ) ;
#36 = DIRECTION ( 'NONE',  ( -5.667495979827188932E-31, -1.000000000000000000, -1.596391580082713105E-16 ) ) ;
#37 = EDGE_CURVE ( 'NONE', #59, #59, #156, .T. ) ;
#38 = PLANE ( 'NONE',  #206 ) ;
#39 = PRODUCT_DEFINITION_FORMATION_WITH_SPECIFIED_SOURCE ( 'ANY', '', #140, .NOT_KNOWN. ) ;
#40 = MANIFOLD_SOLID_BREP ( 'Corps-Déplacer/Copier1[2]', #138 ) ;
#41 = VERTEX_POINT ( 'NONE', #169 ) ;
#42 = ADVANCED_FACE ( 'NONE', ( #26 ), #56, .F. ) ;
#43 = DIRECTION ( 'NONE',  ( 3.491481338843133355E-15, -1.224646799147353207E-16, 1.000000000000000000 ) ) ;
#44 = AXIS2_PLACEMENT_3D ( 'NONE', #168, #1, #16 ) ;
#45 = CC_DESIGN_APPROVAL ( #189, ( #211 ) ) ;
#46 = MANIFOLD_SOLID_BREP ( 'Corps-Déplacer/Copier1[1]', #220 ) ;
#47 = APPROVAL_DATE_TIME ( #22, #54 ) ;
#48 = AXIS2_PLACEMENT_3D ( 'NONE', #91, #60, #74 ) ;
#49 = DATE_TIME_ROLE ( 'creation_date' ) ;
#50 = ADVANCED_FACE ( 'NONE', ( #132 ), #116, .T. ) ;
#51 = EDGE_LOOP ( 'NONE', ( #115 ) ) ;
#52 =( GEOMETRIC_REPRESENTATION_CONTEXT ( 3 ) GLOBAL_UNCERTAINTY_ASSIGNED_CONTEXT ( ( #204 ) ) GLOBAL_UNIT_ASSIGNED_CONTEXT ( ( #215, #144, #111 ) ) REPRESENTATION_CONTEXT ( 'NONE', 'WORKASPACE' ) );
#53 = DIRECTION ( 'NONE',  ( 3.491481338843133355E-15, -1.596391580082713105E-16, 1.000000000000000000 ) ) ;
#54 = APPROVAL ( #76, 'UNSPECIFIED' ) ;
#55 = PERSON_AND_ORGANIZATION ( #123, #69 ) ;
#56 = PLANE ( 'NONE',  #216 ) ;
#57 = CONICAL_SURFACE ( 'NONE', #44, 1.499999999999998890, 0.7853981633974367327 ) ;
#58 = CIRCLE ( 'NONE', #89, 1.499999999999999112 ) ;
#59 = VERTEX_POINT ( 'NONE', #90 ) ;
#60 = DIRECTION ( 'NONE',  ( -3.491481338843133355E-15, 1.224646799147353207E-16, -1.000000000000000000 ) ) ;
#61 = CYLINDRICAL_SURFACE ( 'NONE', #48, 1.499999999999999112 ) ;
#62 = DIRECTION ( 'NONE',  ( 3.491481338843133355E-15, -1.596391580082713105E-16, 1.000000000000000000 ) ) ;
#63 = CIRCLE ( 'NONE', #21, 1.000000000000000222 ) ;
#64 = ADVANCED_FACE ( 'NONE', ( #11, #67 ), #81, .T. ) ;
#65 = AXIS2_PLACEMENT_3D ( 'NONE', #200, #53, #178 ) ;
#66 = EDGE_LOOP ( 'NONE', ( #147 ) ) ;
#67 = FACE_OUTER_BOUND ( 'NONE', #217, .T. ) ;
#68 = APPROVAL_DATE_TIME ( #218, #121 ) ;
#69 = ORGANIZATION ( 'UNSPECIFIED', 'UNSPECIFIED', '' ) ;
#70 = DIRECTION ( 'NONE',  ( 3.491481338843133355E-15, -1.596391580082713105E-16, 1.000000000000000000 ) ) ;
#71 = PERSON_AND_ORGANIZATION ( #123, #69 ) ;
#72 = EDGE_LOOP ( 'NONE', ( #117 ) ) ;
#73 = CIRCLE ( 'NONE', #14, 1.199999999999997291 ) ;
#74 = DIRECTION ( 'NONE',  ( 4.275831445896958607E-31, 1.000000000000000000, 1.224646799147353454E-16 ) ) ;
#75 = CC_DESIGN_DATE_AND_TIME_ASSIGNMENT ( #202, #198, ( #211 ) ) ;
#76 = APPROVAL_STATUS ( 'not_yet_approved' ) ;
#77 = APPROVAL_PERSON_ORGANIZATION ( #113, #121, #82 ) ;
#78 = PERSON_AND_ORGANIZATION ( #123, #69 ) ;
#79 = CARTESIAN_POINT ( 'NONE',  ( -5.573771411345096081E-31, -4.336808689942017736E-16, -1.596391580082712859E-16 ) ) ;
#80 = APPROVAL_ROLE ( '' ) ;
#81 = CYLINDRICAL_SURFACE ( 'NONE', #65, 1.000000000000000000 ) ;
#82 = APPROVAL_ROLE ( '' ) ;
#83 = AXIS2_PLACEMENT_3D ( 'NONE', #79, #70, #149 ) ;
#84 = SECURITY_CLASSIFICATION_LEVEL ( 'unclassified' ) ;
#85 = AXIS2_PLACEMENT_3D ( 'NONE', #129, #172, #110 ) ;
#86 = EDGE_LOOP ( 'NONE', ( #179 ) ) ;
#87 = ORIENTED_EDGE ( 'NONE', *, *, #96, .F. ) ;
#88 = DIRECTION ( 'NONE',  ( 3.491481338843133355E-15, -1.596391580082713105E-16, 1.000000000000000000 ) ) ;
#89 = AXIS2_PLACEMENT_3D ( 'NONE', #209, #88, #155 ) ;
#90 = CARTESIAN_POINT ( 'NONE',  ( 1.316288464743860707E-13, 1.499999999999994449, 37.69999999999998153 ) ) ;
#91 = CARTESIAN_POINT ( 'NONE',  ( 0.0000000000000000000, 0.0000000000000000000, 0.0000000000000000000 ) ) ;
#92 = ADVANCED_FACE ( 'NONE', ( #4, #183 ), #61, .T. ) ;
#93 = VERTEX_POINT ( 'NONE', #145 ) ;
#94 = DIRECTION ( 'NONE',  ( 3.491481338843133355E-15, -1.596391580082713105E-16, 1.000000000000000000 ) ) ;
#95 = AXIS2_PLACEMENT_3D ( 'NONE', #107, #212, #141 ) ;
#96 = EDGE_CURVE ( 'NONE', #186, #186, #190, .T. ) ;
#97 = MECHANICAL_CONTEXT ( 'NONE', #8, 'mechanical' ) ;
#98 = PERSON_AND_ORGANIZATION ( #123, #69 ) ;
#99 = LOCAL_TIME ( 10, 15, 48.00000000000000000, #191 ) ;
#100 = PERSON_AND_ORGANIZATION ( #123, #69 ) ;
#101 = CARTESIAN_POINT ( 'NONE',  ( 1.396592535537252080E-14, 1.124819836996392522E-32, 3.999999999999996447 ) ) ;
#102 = AXIS2_PLACEMENT_3D ( 'NONE', #20, #94, #36 ) ;
#103 = DIRECTION ( 'NONE',  ( -3.491481338843133355E-15, 1.224646799147353207E-16, -1.000000000000000000 ) ) ;
#104 = COORDINATED_UNIVERSAL_TIME_OFFSET ( 1, 0, .AHEAD. ) ;
#105 = ORIENTED_EDGE ( 'NONE', *, *, #31, .F. ) ;
#106 = AXIS2_PLACEMENT_3D ( 'NONE', #133, #103, #164 ) ;
#107 = CARTESIAN_POINT ( 'NONE',  ( 1.396592535537252080E-14, -1.072237501027286523E-15, 3.999999999999996447 ) ) ;
#108 = FACE_OUTER_BOUND ( 'NONE', #153, .T. ) ;
#109 = DIRECTION ( 'NONE',  ( 0.0000000000000000000, -1.000000000000000000, 0.0000000000000000000 ) ) ;
#110 = DIRECTION ( 'NONE',  ( 1.000000000000000000, 0.0000000000000000000, 0.0000000000000000000 ) ) ;
#111 =( NAMED_UNIT ( * ) SI_UNIT ( $, .STERADIAN. ) SOLID_ANGLE_UNIT ( ) );
#112 = CC_DESIGN_PERSON_AND_ORGANIZATION_ASSIGNMENT ( #55, #30, ( #39 ) ) ;
#113 = PERSON_AND_ORGANIZATION ( #123, #69 ) ;
#114 = CALENDAR_DATE ( 2021, 16, 11 ) ;
#115 = ORIENTED_EDGE ( 'NONE', *, *, #37, .T. ) ;
#116 = PLANE ( 'NONE',  #106 ) ;
#117 = ORIENTED_EDGE ( 'NONE', *, *, #31, .T. ) ;
#118 = EDGE_LOOP ( 'NONE', ( #32 ) ) ;
#119 = APPROVAL_STATUS ( 'not_yet_approved' ) ;
#120 = DESIGN_CONTEXT ( 'detailed design', #142, 'design' ) ;
#121 = APPROVAL ( #165, 'UNSPECIFIED' ) ;
#122 = FACE_OUTER_BOUND ( 'NONE', #66, .T. ) ;
#123 = PERSON ( 'UNSPECIFIED', 'UNSPECIFIED', 'UNSPECIFIED', ('UNSPECIFIED'), ('UNSPECIFIED'), ('UNSPECIFIED') ) ;
#124 = CIRCLE ( 'NONE', #83, 0.9999999999999995559 ) ;
#125 = FACE_BOUND ( 'NONE', #72, .T. ) ;
#126 = DIRECTION ( 'NONE',  ( -3.491481338843133355E-15, 1.224646799147353207E-16, -1.000000000000000000 ) ) ;
#127 = APPLICATION_PROTOCOL_DEFINITION ( 'international standard', 'config_control_design', 1994, #142 ) ;
#128 = APPLICATION_PROTOCOL_DEFINITION ( 'international standard', 'config_control_design', 1994, #8 ) ;
#129 = CARTESIAN_POINT ( 'NONE',  ( 0.0000000000000000000, 0.0000000000000000000, 0.0000000000000000000 ) ) ;
#130 = PERSON_AND_ORGANIZATION_ROLE ( 'creator' ) ;
#131 = EDGE_CURVE ( 'NONE', #41, #41, #63, .T. ) ;
#132 = FACE_OUTER_BOUND ( 'NONE', #223, .T. ) ;
#133 = CARTESIAN_POINT ( 'NONE',  ( -3.206873584422718517E-31, 1.124819836996392932E-32, -9.184850993605147205E-17 ) ) ;
#134 = ADVANCED_FACE ( 'NONE', ( #182 ), #38, .F. ) ;
#135 = CALENDAR_DATE ( 2021, 16, 11 ) ;
#136 = DIRECTION ( 'NONE',  ( -3.491481338843133355E-15, 1.224646799147353207E-16, -1.000000000000000000 ) ) ;
#137 = DIRECTION ( 'NONE',  ( -3.491481338843133355E-15, 1.224646799147353207E-16, -1.000000000000000000 ) ) ;
#138 = CLOSED_SHELL ( 'NONE', ( #166, #64, #50 ) ) ;
#139 = VERTEX_POINT ( 'NONE', #210 ) ;
#140 = PRODUCT ( '974804', '974804', '', ( #97 ) ) ;
#141 = DIRECTION ( 'NONE',  ( 0.0000000000000000000, -1.000000000000000000, 0.0000000000000000000 ) ) ;
#142 = APPLICATION_CONTEXT ( 'configuration controlled 3d designs of mechanical parts and assemblies' ) ;
#143 = CC_DESIGN_PERSON_AND_ORGANIZATION_ASSIGNMENT ( #78, #175, ( #211 ) ) ;
#144 =( NAMED_UNIT ( * ) PLANE_ANGLE_UNIT ( ) SI_UNIT ( $, .RADIAN. ) );
#145 = CARTESIAN_POINT ( 'NONE',  ( 2.368579804132093535E-14, 1.499999999999998668, 6.783882181415004098 ) ) ;
#146 = LOCAL_TIME ( 10, 15, 48.00000000000000000, #104 ) ;
#147 = ORIENTED_EDGE ( 'NONE', *, *, #37, .F. ) ;
#148 = APPROVAL_DATE_TIME ( #33, #189 ) ;
#149 = DIRECTION ( 'NONE',  ( -5.573771411345096957E-31, -1.000000000000000000, -1.596391580082713105E-16 ) ) ;
#150 = CALENDAR_DATE ( 2021, 16, 11 ) ;
#151 = ORIENTED_EDGE ( 'NONE', *, *, #17, .F. ) ;
#152 = ORIENTED_EDGE ( 'NONE', *, *, #17, .T. ) ;
#153 = EDGE_LOOP ( 'NONE', ( #10 ) ) ;
#154 = PRODUCT_RELATED_PRODUCT_CATEGORY ( 'detail', '', ( #140 ) ) ;
#155 = DIRECTION ( 'NONE',  ( 0.0000000000000000000, 1.000000000000000000, 0.0000000000000000000 ) ) ;
#156 = CIRCLE ( 'NONE', #167, 1.499999999999998890 ) ;
#157 = CARTESIAN_POINT ( 'NONE',  ( 1.396592535537252080E-14, -1.000000000000001332, 3.999999999999996447 ) ) ;
#158 = CARTESIAN_POINT ( 'NONE',  ( -1.114754282269019041E-30, -1.000000000000000000, -3.192783160165425225E-16 ) ) ;
#159 = CARTESIAN_POINT ( 'NONE',  ( 1.396592535537252080E-14, 1.124819836996392522E-32, 3.999999999999996447 ) ) ;
#160 = ADVANCED_FACE ( 'NONE', ( #125, #122 ), #57, .T. ) ;
#161 = DIRECTION ( 'NONE',  ( 3.491481338843133355E-15, -1.224646799147353207E-16, 1.000000000000000000 ) ) ;
#162 = TOROIDAL_SURFACE ( 'NONE', #102, 9.000000000000005329, 8.000000000000003553 ) ;
#163 = LOCAL_TIME ( 10, 15, 48.00000000000000000, #180 ) ;
#164 = DIRECTION ( 'NONE',  ( 4.275831445896958607E-31, 1.000000000000000000, 1.224646799147353207E-16 ) ) ;
#165 = APPROVAL_STATUS ( 'not_yet_approved' ) ;
#166 = ADVANCED_FACE ( 'NONE', ( #108 ), #187, .T. ) ;
#167 = AXIS2_PLACEMENT_3D ( 'NONE', #203, #137, #174 ) ;
#168 = CARTESIAN_POINT ( 'NONE',  ( 1.316288464743860707E-13, -4.616918432785519503E-15, 37.69999999999998153 ) ) ;
#169 = CARTESIAN_POINT ( 'NONE',  ( 1.396592535537252080E-14, -1.000000000000001332, 3.999999999999996447 ) ) ;
#170 = LOCAL_TIME ( 10, 15, 48.00000000000000000, #221 ) ;
#171 = CC_DESIGN_PERSON_AND_ORGANIZATION_ASSIGNMENT ( #214, #213, ( #140 ) ) ;
#172 = DIRECTION ( 'NONE',  ( 0.0000000000000000000, 0.0000000000000000000, 1.000000000000000000 ) ) ;
#173 = SHAPE_DEFINITION_REPRESENTATION ( #29, #192 ) ;
#174 = DIRECTION ( 'NONE',  ( 0.0000000000000000000, 1.000000000000000000, 0.0000000000000000000 ) ) ;
#175 = PERSON_AND_ORGANIZATION_ROLE ( 'classification_officer' ) ;
#176 = EDGE_LOOP ( 'NONE', ( #152 ) ) ;
#177 = AXIS2_PLACEMENT_3D ( 'NONE', #159, #43, #18 ) ;
#178 = DIRECTION ( 'NONE',  ( -5.573771411345097833E-31, -1.000000000000000000, -1.596391580082713352E-16 ) ) ;
#179 = ORIENTED_EDGE ( 'NONE', *, *, #194, .F. ) ;
#180 = COORDINATED_UNIVERSAL_TIME_OFFSET ( 1, 0, .AHEAD. ) ;
#181 = ADVANCED_FACE ( 'NONE', ( #208, #5 ), #162, .F. ) ;
#182 = FACE_OUTER_BOUND ( 'NONE', #12, .T. ) ;
#183 = FACE_OUTER_BOUND ( 'NONE', #13, .T. ) ;
#184 = VERTEX_POINT ( 'NONE', #158 ) ;
#185 = APPROVAL_PERSON_ORGANIZATION ( #27, #189, #80 ) ;
#186 = VERTEX_POINT ( 'NONE', #157 ) ;
#187 = PLANE ( 'NONE',  #177 ) ;
#188 = APPROVAL_ROLE ( '' ) ;
#189 = APPROVAL ( #119, 'UNSPECIFIED' ) ;
#190 = CIRCLE ( 'NONE', #95, 1.000000000000000222 ) ;
#191 = COORDINATED_UNIVERSAL_TIME_OFFSET ( 1, 0, .AHEAD. ) ;
#192 = ADVANCED_BREP_SHAPE_REPRESENTATION ( '974804', ( #46, #40, #85 ), #52 ) ;
#193 = CALENDAR_DATE ( 2021, 16, 11 ) ;
#194 = EDGE_CURVE ( 'NONE', #93, #93, #58, .T. ) ;
#195 = COORDINATED_UNIVERSAL_TIME_OFFSET ( 1, 0, .AHEAD. ) ;
#196 = DATE_AND_TIME ( #24, #197 ) ;
#197 = LOCAL_TIME ( 10, 15, 48.00000000000000000, #195 ) ;
#198 = DATE_TIME_ROLE ( 'classification_date' ) ;
#199 = DIRECTION ( 'NONE',  ( -4.275831445896958607E-31, -1.000000000000000000, -1.224646799147353207E-16 ) ) ;
#200 = CARTESIAN_POINT ( 'NONE',  ( -6.413747168845439661E-31, -4.336808689942017736E-16, -1.836970198721030181E-16 ) ) ;
#201 = CC_DESIGN_APPROVAL ( #54, ( #25 ) ) ;
#202 = DATE_AND_TIME ( #135, #146 ) ;
#203 = CARTESIAN_POINT ( 'NONE',  ( 1.316288464743860707E-13, -4.616918432785519503E-15, 37.69999999999998153 ) ) ;
#204 = UNCERTAINTY_MEASURE_WITH_UNIT (LENGTH_MEASURE( 1.000000000000000082E-05 ), #215, 'distance_accuracy_value', 'NONE');
#205 = DIRECTION ( 'NONE',  ( 4.275831445896958607E-31, 1.000000000000000000, 1.224646799147353207E-16 ) ) ;
#206 = AXIS2_PLACEMENT_3D ( 'NONE', #2, #126, #205 ) ;
#207 = CC_DESIGN_APPROVAL ( #121, ( #39 ) ) ;
#208 = FACE_OUTER_BOUND ( 'NONE', #86, .T. ) ;
#209 = CARTESIAN_POINT ( 'NONE',  ( 2.368579804132093535E-14, -4.444166074353216404E-16, 6.783882181415004098 ) ) ;
#210 = CARTESIAN_POINT ( 'NONE',  ( 1.326762908760390170E-13, 1.199999999999992628, 37.99999999999999289 ) ) ;
#211 = SECURITY_CLASSIFICATION ( '', '', #84 ) ;
#212 = DIRECTION ( 'NONE',  ( 3.491481338843133355E-15, -1.596391580082713105E-16, 1.000000000000000000 ) ) ;
#213 = PERSON_AND_ORGANIZATION_ROLE ( 'design_owner' ) ;
#214 = PERSON_AND_ORGANIZATION ( #123, #69 ) ;
#215 =( LENGTH_UNIT ( ) NAMED_UNIT ( * ) SI_UNIT ( .MILLI., .METRE. ) );
#216 = AXIS2_PLACEMENT_3D ( 'NONE', #101, #161, #199 ) ;
#217 = EDGE_LOOP ( 'NONE', ( #87 ) ) ;
#218 = DATE_AND_TIME ( #150, #170 ) ;
#219 = DIRECTION ( 'NONE',  ( 0.0000000000000000000, 1.000000000000000000, 0.0000000000000000000 ) ) ;
#220 = CLOSED_SHELL ( 'NONE', ( #92, #160, #134, #181, #42 ) ) ;
#221 = COORDINATED_UNIVERSAL_TIME_OFFSET ( 1, 0, .AHEAD. ) ;
#222 = CARTESIAN_POINT ( 'NONE',  ( 1.326762908760390170E-13, -4.653657836759941152E-15, 37.99999999999999289 ) ) ;
#223 = EDGE_LOOP ( 'NONE', ( #151 ) ) ;
ENDSEC;
END-ISO-10303-21;
