ISO-10303-21;
HEADER;
FILE_DESCRIPTION (( 'STEP AP203' ),
    '1' );
FILE_NAME ('974654.step',
    '2021-12-17T10:17:55',
    ( '' ),
    ( '' ),
    'SwSTEP 2.0',
    'SolidWorks 2019',
    '' );
FILE_SCHEMA (( 'CONFIG_CONTROL_DESIGN' ));
ENDSEC;

DATA;
#1 = DIRECTION ( 'NONE',  ( -3.491481338843133355E-15, 1.224646799147353207E-16, -1.000000000000000000 ) ) ;
#2 = CC_DESIGN_PERSON_AND_ORGANIZATION_ASSIGNMENT ( #69, #22, ( #296 ) ) ;
#3 = PERSON_AND_ORGANIZATION ( #79, #261 ) ;
#4 = CARTESIAN_POINT ( 'NONE',  ( 0.0000000000000000000, 0.0000000000000000000, 0.0000000000000000000 ) ) ;
#5 = AXIS2_PLACEMENT_3D ( 'NONE', #129, #56, #108 ) ;
#6 = EDGE_CURVE ( 'NONE', #115, #115, #294, .T. ) ;
#7 =( NAMED_UNIT ( * ) SI_UNIT ( $, .STERADIAN. ) SOLID_ANGLE_UNIT ( ) );
#8 = EDGE_LOOP ( 'NONE', ( #28 ) ) ;
#9 = DIRECTION ( 'NONE',  ( 3.491481338843133355E-15, -1.224646799147353207E-16, 1.000000000000000000 ) ) ;
#10 = LOCAL_TIME ( 11, 17, 55.00000000000000000, #243 ) ;
#11 = FACE_OUTER_BOUND ( 'NONE', #238, .T. ) ;
#12 = CYLINDRICAL_SURFACE ( 'NONE', #209, 0.2094999999999999640 ) ;
#13 = ADVANCED_FACE ( 'NONE', ( #297, #11 ), #208, .T. ) ;
#14 = LOCAL_TIME ( 11, 17, 55.00000000000000000, #137 ) ;
#15 = EDGE_LOOP ( 'NONE', ( #204 ) ) ;
#16 = CARTESIAN_POINT ( 'NONE',  ( 8.790286409911521514E-15, 0.2776483474218592873, 2.517638090205028156 ) ) ;
#17 = APPROVAL_STATUS ( 'not_yet_approved' ) ;
#18 = DIRECTION ( 'NONE',  ( 4.275831445896958607E-31, 1.000000000000000000, 1.224646799147353207E-16 ) ) ;
#19 = PERSON_AND_ORGANIZATION_ROLE ( 'design_supplier' ) ;
#20 = DIRECTION ( 'NONE',  ( -3.491481338843133355E-15, 1.224646799147353207E-16, -1.000000000000000000 ) ) ;
#21 = AXIS2_PLACEMENT_3D ( 'NONE', #41, #45, #252 ) ;
#22 = PERSON_AND_ORGANIZATION_ROLE ( 'classification_officer' ) ;
#23 = DIRECTION ( 'NONE',  ( -3.491481338843133355E-15, 1.224646799147353207E-16, -1.000000000000000000 ) ) ;
#24 = APPROVAL ( #146, 'UNSPECIFIED' ) ;
#25 = CALENDAR_DATE ( 2021, 17, 12 ) ;
#26 = PRODUCT_DEFINITION_SHAPE ( 'NONE', 'NONE',  #196 ) ;
#27 = DATE_AND_TIME ( #262, #197 ) ;
#28 = ORIENTED_EDGE ( 'NONE', *, *, #156, .F. ) ;
#29 = DIRECTION ( 'NONE',  ( -3.491481338843133355E-15, 1.224646799147353207E-16, -1.000000000000000000 ) ) ;
#30 = CARTESIAN_POINT ( 'NONE',  ( 5.586370142149013368E-15, -1.656060597591224097E-15, 1.599999999999999867 ) ) ;
#31 = CIRCLE ( 'NONE', #177, 0.2094999999999999363 ) ;
#32 = FACE_OUTER_BOUND ( 'NONE', #291, .T. ) ;
#33 = CARTESIAN_POINT ( 'NONE',  ( 5.586370142149013368E-15, -1.959434878635764984E-16, 1.599999999999999867 ) ) ;
#34 = CARTESIAN_POINT ( 'NONE',  ( 1.047444401652939809E-15, -3.673940397442058882E-17, 0.2999999999999999889 ) ) ;
#35 = ORIENTED_EDGE ( 'NONE', *, *, #156, .T. ) ;
#36 = AXIS2_PLACEMENT_3D ( 'NONE', #34, #110, #217 ) ;
#37 = FACE_BOUND ( 'NONE', #271, .T. ) ;
#38 = ORIENTED_EDGE ( 'NONE', *, *, #298, .F. ) ;
#39 = FACE_OUTER_BOUND ( 'NONE', #163, .T. ) ;
#40 = EDGE_LOOP ( 'NONE', ( #150 ) ) ;
#41 = CARTESIAN_POINT ( 'NONE',  ( 5.586370142149013368E-15, -1.656060597591224097E-15, 1.599999999999999867 ) ) ;
#42 = DIRECTION ( 'NONE',  ( 0.0000000000000000000, 1.000000000000000000, 0.0000000000000000000 ) ) ;
#43 = LOCAL_TIME ( 11, 17, 55.00000000000000000, #264 ) ;
#44 = ADVANCED_FACE ( 'NONE', ( #293, #249 ), #253, .F. ) ;
#45 = DIRECTION ( 'NONE',  ( 3.491481338843133355E-15, -1.224646799147353207E-16, 1.000000000000000000 ) ) ;
#46 = SHAPE_DEFINITION_REPRESENTATION ( #26, #210 ) ;
#47 = ADVANCED_FACE ( 'NONE', ( #295, #268 ), #81, .T. ) ;
#48 = CIRCLE ( 'NONE', #234, 0.2094999999999999918 ) ;
#49 = PERSON_AND_ORGANIZATION_ROLE ( 'creator' ) ;
#50 = DESIGN_CONTEXT ( 'detailed design', #124, 'design' ) ;
#51 = CC_DESIGN_PERSON_AND_ORGANIZATION_ASSIGNMENT ( #277, #19, ( #85 ) ) ;
#52 =( NAMED_UNIT ( * ) PLANE_ANGLE_UNIT ( ) SI_UNIT ( $, .RADIAN. ) );
#53 = CIRCLE ( 'NONE', #36, 0.2094999999999997420 ) ;
#54 = CLOSED_SHELL ( 'NONE', ( #82, #132, #44, #102, #171, #266, #275 ) ) ;
#55 = CC_DESIGN_PERSON_AND_ORGANIZATION_ASSIGNMENT ( #97, #189, ( #85 ) ) ;
#56 = DIRECTION ( 'NONE',  ( -3.491481338843133355E-15, 1.224646799147353207E-16, -1.000000000000000000 ) ) ;
#57 = DIRECTION ( 'NONE',  ( -3.491481338843133355E-15, 1.224646799147353207E-16, -1.000000000000000000 ) ) ;
#58 = AXIS2_PLACEMENT_3D ( 'NONE', #260, #174, #99 ) ;
#59 = FACE_OUTER_BOUND ( 'NONE', #113, .T. ) ;
#60 = DIRECTION ( 'NONE',  ( -3.491481338843133355E-15, 1.224646799147353207E-16, -1.000000000000000000 ) ) ;
#61 = CARTESIAN_POINT ( 'NONE',  ( 1.047444401652939809E-15, 0.2094999999999997142, 0.2999999999999999889 ) ) ;
#62 = ORIENTED_EDGE ( 'NONE', *, *, #160, .T. ) ;
#63 = AXIS2_PLACEMENT_3D ( 'NONE', #30, #80, #153 ) ;
#64 = CARTESIAN_POINT ( 'NONE',  ( 1.502837313480870312E-16, -5.271243712857327778E-18, 0.04304297138184962762 ) ) ;
#65 = ORIENTED_EDGE ( 'NONE', *, *, #6, .T. ) ;
#66 = CLOSED_SHELL ( 'NONE', ( #183, #78, #47, #13, #218 ) ) ;
#67 = PLANE ( 'NONE',  #123 ) ;
#68 = DATE_TIME_ROLE ( 'classification_date' ) ;
#69 = PERSON_AND_ORGANIZATION ( #79, #261 ) ;
#70 = APPROVAL ( #74, 'UNSPECIFIED' ) ;
#71 = VERTEX_POINT ( 'NONE', #170 ) ;
#72 = CIRCLE ( 'NONE', #224, 0.2776483474218595648 ) ;
#73 = PERSON_AND_ORGANIZATION ( #79, #261 ) ;
#74 = APPROVAL_STATUS ( 'not_yet_approved' ) ;
#75 = AXIS2_PLACEMENT_3D ( 'NONE', #251, #226, #205 ) ;
#76 = PERSON_AND_ORGANIZATION_ROLE ( 'design_owner' ) ;
#77 = ORIENTED_EDGE ( 'NONE', *, *, #290, .T. ) ;
#78 = ADVANCED_FACE ( 'NONE', ( #112, #59 ), #292, .T. ) ;
#79 = PERSON ( 'UNSPECIFIED', 'UNSPECIFIED', 'UNSPECIFIED', ('UNSPECIFIED'), ('UNSPECIFIED'), ('UNSPECIFIED') ) ;
#80 = DIRECTION ( 'NONE',  ( 3.491481338843133355E-15, -1.224646799147353207E-16, 1.000000000000000000 ) ) ;
#81 = CONICAL_SURFACE ( 'NONE', #282, 0.2094999999999997420, 0.1919862177193694952 ) ;
#82 = ADVANCED_FACE ( 'NONE', ( #211 ), #248, .F. ) ;
#83 = CARTESIAN_POINT ( 'NONE',  ( 1.047444401652939809E-15, -3.673940397442058882E-17, 0.2999999999999999889 ) ) ;
#84 = DIRECTION ( 'NONE',  ( 4.275831445896958607E-31, 1.000000000000000000, 1.224646799147353207E-16 ) ) ;
#85 = PRODUCT_DEFINITION_FORMATION_WITH_SPECIFIED_SOURCE ( 'ANY', '', #105, .NOT_KNOWN. ) ;
#86 = CARTESIAN_POINT ( 'NONE',  ( 5.586370142149013368E-15, -1.959434878635764984E-16, 1.599999999999999867 ) ) ;
#87 = PLANE ( 'NONE',  #215 ) ;
#88 = ORIENTED_EDGE ( 'NONE', *, *, #301, .T. ) ;
#89 = DIRECTION ( 'NONE',  ( 4.275831445896958607E-31, 1.000000000000000000, 1.224646799147353207E-16 ) ) ;
#90 = VERTEX_POINT ( 'NONE', #191 ) ;
#91 = APPROVAL_DATE_TIME ( #27, #70 ) ;
#92 = PLANE ( 'NONE',  #21 ) ;
#93 = DIRECTION ( 'NONE',  ( 4.526555309982277275E-31, 1.000000000000000000, 1.274112050456757747E-16 ) ) ;
#94 = ORIENTED_EDGE ( 'NONE', *, *, #298, .T. ) ;
#95 = COORDINATED_UNIVERSAL_TIME_OFFSET ( 1, 0, .AHEAD. ) ;
#96 = CC_DESIGN_APPROVAL ( #121, ( #296 ) ) ;
#97 = PERSON_AND_ORGANIZATION ( #79, #261 ) ;
#98 = MECHANICAL_CONTEXT ( 'NONE', #185, 'mechanical' ) ;
#99 = DIRECTION ( 'NONE',  ( 1.000000000000000000, 0.0000000000000000000, 0.0000000000000000000 ) ) ;
#100 = UNCERTAINTY_MEASURE_WITH_UNIT (LENGTH_MEASURE( 1.000000000000000082E-05 ), #220, 'distance_accuracy_value', 'NONE');
#101 = APPLICATION_PROTOCOL_DEFINITION ( 'international standard', 'config_control_design', 1994, #124 ) ;
#102 = ADVANCED_FACE ( 'NONE', ( #104, #179 ), #106, .T. ) ;
#103 = EDGE_LOOP ( 'NONE', ( #62 ) ) ;
#104 = FACE_BOUND ( 'NONE', #255, .T. ) ;
#105 = PRODUCT ( '974654', '974654', '', ( #98 ) ) ;
#106 = CONICAL_SURFACE ( 'NONE', #75, 0.7499999999999968914, 0.2617993877991427465 ) ;
#107 = EDGE_CURVE ( 'NONE', #71, #71, #31, .T. ) ;
#108 = DIRECTION ( 'NONE',  ( 4.275831445896959482E-31, 1.000000000000000000, 1.224646799147353207E-16 ) ) ;
#109 = CARTESIAN_POINT ( 'NONE',  ( 0.0000000000000000000, 0.0000000000000000000, 0.0000000000000000000 ) ) ;
#110 = DIRECTION ( 'NONE',  ( -3.491481338843133355E-15, 1.224646799147353207E-16, -1.000000000000000000 ) ) ;
#111 = AXIS2_PLACEMENT_3D ( 'NONE', #64, #192, #93 ) ;
#112 = FACE_BOUND ( 'NONE', #273, .T. ) ;
#113 = EDGE_LOOP ( 'NONE', ( #77 ) ) ;
#114 = CC_DESIGN_DATE_AND_TIME_ASSIGNMENT ( #241, #289, ( #196 ) ) ;
#115 = VERTEX_POINT ( 'NONE', #237 ) ;
#116 = ORIENTED_EDGE ( 'NONE', *, *, #235, .T. ) ;
#117 = VERTEX_POINT ( 'NONE', #16 ) ;
#118 = DATE_AND_TIME ( #166, #14 ) ;
#119 = DIRECTION ( 'NONE',  ( -3.491481338843133355E-15, 1.224646799147353207E-16, -1.000000000000000000 ) ) ;
#120 = FACE_OUTER_BOUND ( 'NONE', #213, .T. ) ;
#121 = APPROVAL ( #17, 'UNSPECIFIED' ) ;
#122 = VERTEX_POINT ( 'NONE', #214 ) ;
#123 = AXIS2_PLACEMENT_3D ( 'NONE', #212, #194, #18 ) ;
#124 = APPLICATION_CONTEXT ( 'configuration controlled 3d designs of mechanical parts and assemblies' ) ;
#125 = APPROVAL_ROLE ( '' ) ;
#126 = CC_DESIGN_PERSON_AND_ORGANIZATION_ASSIGNMENT ( #127, #76, ( #105 ) ) ;
#127 = PERSON_AND_ORGANIZATION ( #79, #261 ) ;
#128 = CC_DESIGN_APPROVAL ( #70, ( #85 ) ) ;
#129 = CARTESIAN_POINT ( 'NONE',  ( 0.0000000000000000000, 0.0000000000000000000, 0.0000000000000000000 ) ) ;
#130 = DIRECTION ( 'NONE',  ( -3.491481338843133355E-15, 1.224646799147353207E-16, -1.000000000000000000 ) ) ;
#131 = DIRECTION ( 'NONE',  ( -3.491481338843133355E-15, 1.224646799147353207E-16, -1.000000000000000000 ) ) ;
#132 = ADVANCED_FACE ( 'NONE', ( #246, #32 ), #12, .T. ) ;
#133 = DIRECTION ( 'NONE',  ( 0.0000000000000000000, -1.000000000000000000, 0.0000000000000000000 ) ) ;
#134 = AXIS2_PLACEMENT_3D ( 'NONE', #267, #60, #157 ) ;
#135 = DIRECTION ( 'NONE',  ( -3.491481338843133355E-15, 1.224646799147353207E-16, -1.000000000000000000 ) ) ;
#136 = EDGE_LOOP ( 'NONE', ( #187 ) ) ;
#137 = COORDINATED_UNIVERSAL_TIME_OFFSET ( 1, 0, .AHEAD. ) ;
#138 = DIRECTION ( 'NONE',  ( 0.0000000000000000000, 1.000000000000000000, 0.0000000000000000000 ) ) ;
#139 = EDGE_CURVE ( 'NONE', #117, #117, #72, .T. ) ;
#140 = CARTESIAN_POINT ( 'NONE',  ( -1.073221607794927101E-31, 3.764354665568165940E-33, -3.073828852685570584E-17 ) ) ;
#141 = ORIENTED_EDGE ( 'NONE', *, *, #235, .F. ) ;
#142 = CIRCLE ( 'NONE', #303, 0.08499999999999999223 ) ;
#143 = CARTESIAN_POINT ( 'NONE',  ( 1.494521065276871680E-14, 0.7499999999999963363, 4.280478456665806952 ) ) ;
#144 = CARTESIAN_POINT ( 'NONE',  ( 1.042207179644675275E-13, -3.655570695454848748E-15, 29.84999999999999787 ) ) ;
#145 = EDGE_LOOP ( 'NONE', ( #284 ) ) ;
#146 = APPROVAL_STATUS ( 'not_yet_approved' ) ;
#147 = PERSON_AND_ORGANIZATION ( #79, #261 ) ;
#148 = APPROVAL_DATE_TIME ( #285, #24 ) ;
#149 = APPROVAL_PERSON_ORGANIZATION ( #3, #121, #164 ) ;
#150 = ORIENTED_EDGE ( 'NONE', *, *, #290, .F. ) ;
#151 = ORIENTED_EDGE ( 'NONE', *, *, #245, .T. ) ;
#152 = DIRECTION ( 'NONE',  ( 0.0000000000000000000, 1.000000000000000000, 0.0000000000000000000 ) ) ;
#153 = DIRECTION ( 'NONE',  ( -4.275831445896958607E-31, -1.000000000000000000, -1.224646799147353207E-16 ) ) ;
#154 = CIRCLE ( 'NONE', #240, 0.2094999999999999363 ) ;
#155 = CARTESIAN_POINT ( 'NONE',  ( 8.790286409911521514E-15, -3.083217428581043256E-16, 2.517638090205028156 ) ) ;
#156 = EDGE_CURVE ( 'NONE', #122, #122, #154, .T. ) ;
#157 = DIRECTION ( 'NONE',  ( 4.338915646878689874E-31, 1.000000000000000000, 1.224646799147353207E-16 ) ) ;
#158 = CARTESIAN_POINT ( 'NONE',  ( -5.366108038974635504E-32, 1.882177332784082970E-33, -1.536914426342785292E-17 ) ) ;
#159 = ORIENTED_EDGE ( 'NONE', *, *, #139, .F. ) ;
#160 = EDGE_CURVE ( 'NONE', #302, #302, #53, .T. ) ;
#161 = AXIS2_PLACEMENT_3D ( 'NONE', #206, #29, #225 ) ;
#162 = FACE_OUTER_BOUND ( 'NONE', #222, .T. ) ;
#163 = EDGE_LOOP ( 'NONE', ( #94 ) ) ;
#164 = APPROVAL_ROLE ( '' ) ;
#165 = CARTESIAN_POINT ( 'NONE',  ( 1.502837313480871051E-16, 0.1595526133420959169, 0.04304297138184964844 ) ) ;
#166 = CALENDAR_DATE ( 2021, 17, 12 ) ;
#167 = FACE_OUTER_BOUND ( 'NONE', #136, .T. ) ;
#168 = ORIENTED_EDGE ( 'NONE', *, *, #6, .F. ) ;
#169 = LOCAL_TIME ( 11, 17, 55.00000000000000000, #95 ) ;
#170 = CARTESIAN_POINT ( 'NONE',  ( 5.586370142149013368E-15, 0.2094999999999997420, 1.599999999999999867 ) ) ;
#171 = ADVANCED_FACE ( 'NONE', ( #254, #39 ), #300, .T. ) ;
#172 = APPLICATION_PROTOCOL_DEFINITION ( 'international standard', 'config_control_design', 1994, #185 ) ;
#173 = CIRCLE ( 'NONE', #274, 0.7499999999999984457 ) ;
#174 = DIRECTION ( 'NONE',  ( 0.0000000000000000000, 0.0000000000000000000, 1.000000000000000000 ) ) ;
#175 = CC_DESIGN_DATE_AND_TIME_ASSIGNMENT ( #280, #68, ( #296 ) ) ;
#176 = ORIENTED_EDGE ( 'NONE', *, *, #301, .F. ) ;
#177 = AXIS2_PLACEMENT_3D ( 'NONE', #86, #57, #152 ) ;
#178 = DIRECTION ( 'NONE',  ( 0.0000000000000000000, 1.000000000000000000, 0.0000000000000000000 ) ) ;
#179 = FACE_OUTER_BOUND ( 'NONE', #202, .T. ) ;
#180 = DIRECTION ( 'NONE',  ( -4.526555309982277275E-31, -1.000000000000000000, -1.274112050456757747E-16 ) ) ;
#181 = DIRECTION ( 'NONE',  ( -3.491481338843133355E-15, 1.224646799147353207E-16, -1.000000000000000000 ) ) ;
#182 = CC_DESIGN_APPROVAL ( #24, ( #196 ) ) ;
#183 = ADVANCED_FACE ( 'NONE', ( #162 ), #87, .F. ) ;
#184 = DIRECTION ( 'NONE',  ( 3.491481338843133355E-15, -1.224646799147353207E-16, 1.000000000000000000 ) ) ;
#185 = APPLICATION_CONTEXT ( 'configuration controlled 3d designs of mechanical parts and assemblies' ) ;
#186 = DIRECTION ( 'NONE',  ( 0.0000000000000000000, 1.000000000000000000, 0.0000000000000000000 ) ) ;
#187 = ORIENTED_EDGE ( 'NONE', *, *, #107, .F. ) ;
#188 = DIRECTION ( 'NONE',  ( 3.491481338843133355E-15, -1.224646799147353207E-16, 1.000000000000000000 ) ) ;
#189 = PERSON_AND_ORGANIZATION_ROLE ( 'creator' ) ;
#190 = AXIS2_PLACEMENT_3D ( 'NONE', #257, #20, #138 ) ;
#191 = CARTESIAN_POINT ( 'NONE',  ( 6.982962677686266711E-15, 0.2094999999999997420, 2.000000000000000000 ) ) ;
#192 = DIRECTION ( 'NONE',  ( -3.491481338843133355E-15, 1.224646799147353207E-16, -1.000000000000000000 ) ) ;
#193 = SECURITY_CLASSIFICATION_LEVEL ( 'unclassified' ) ;
#194 = DIRECTION ( 'NONE',  ( -3.491481338843133355E-15, 1.224646799147353207E-16, -1.000000000000000000 ) ) ;
#195 = APPROVAL_DATE_TIME ( #118, #121 ) ;
#196 = PRODUCT_DEFINITION ( 'UNKNOWN', '', #85, #50 ) ;
#197 = LOCAL_TIME ( 11, 17, 55.00000000000000000, #219 ) ;
#198 = CALENDAR_DATE ( 2021, 17, 12 ) ;
#199 = MANIFOLD_SOLID_BREP ( 'Corps-Déplacer/Copier1[1]', #54 ) ;
#200 = MANIFOLD_SOLID_BREP ( 'Corps-Déplacer/Copier1[2]', #66 ) ;
#201 =( GEOMETRIC_REPRESENTATION_CONTEXT ( 3 ) GLOBAL_UNCERTAINTY_ASSIGNED_CONTEXT ( ( #100 ) ) GLOBAL_UNIT_ASSIGNED_CONTEXT ( ( #220, #52, #7 ) ) REPRESENTATION_CONTEXT ( 'NONE', 'WORKASPACE' ) );
#202 = EDGE_LOOP ( 'NONE', ( #151 ) ) ;
#203 = PERSON_AND_ORGANIZATION ( #79, #261 ) ;
#204 = ORIENTED_EDGE ( 'NONE', *, *, #245, .F. ) ;
#205 = DIRECTION ( 'NONE',  ( 0.0000000000000000000, -1.000000000000000000, 0.0000000000000000000 ) ) ;
#206 = CARTESIAN_POINT ( 'NONE',  ( 1.047444401652940007E-13, -3.673940397442059178E-15, 30.00000000000000000 ) ) ;
#207 = CARTESIAN_POINT ( 'NONE',  ( 1.502837313480870312E-16, -5.271243712857327778E-18, 0.04304297138184962762 ) ) ;
#208 = CYLINDRICAL_SURFACE ( 'NONE', #5, 0.2094999999999998253 ) ;
#209 = AXIS2_PLACEMENT_3D ( 'NONE', #109, #181, #84 ) ;
#210 = ADVANCED_BREP_SHAPE_REPRESENTATION ( '974654', ( #199, #200, #58 ), #201 ) ;
#211 = FACE_OUTER_BOUND ( 'NONE', #263, .T. ) ;
#212 = CARTESIAN_POINT ( 'NONE',  ( 1.047444401652940007E-13, 4.499279347985507822E-33, 30.00000000000000000 ) ) ;
#213 = EDGE_LOOP ( 'NONE', ( #168 ) ) ;
#214 = CARTESIAN_POINT ( 'NONE',  ( 5.586370142149013368E-15, 0.2094999999999997420, 1.599999999999999867 ) ) ;
#215 = AXIS2_PLACEMENT_3D ( 'NONE', #158, #188, #270 ) ;
#216 = DIRECTION ( 'NONE',  ( 0.0000000000000000000, 1.000000000000000000, 0.0000000000000000000 ) ) ;
#217 = DIRECTION ( 'NONE',  ( 0.0000000000000000000, 1.000000000000000000, 0.0000000000000000000 ) ) ;
#218 = ADVANCED_FACE ( 'NONE', ( #167 ), #92, .T. ) ;
#219 = COORDINATED_UNIVERSAL_TIME_OFFSET ( 1, 0, .AHEAD. ) ;
#220 =( LENGTH_UNIT ( ) NAMED_UNIT ( * ) SI_UNIT ( .MILLI., .METRE. ) );
#221 = CIRCLE ( 'NONE', #190, 0.7499999999999968914 ) ;
#222 = EDGE_LOOP ( 'NONE', ( #88 ) ) ;
#223 = CC_DESIGN_PERSON_AND_ORGANIZATION_ASSIGNMENT ( #203, #49, ( #196 ) ) ;
#224 = AXIS2_PLACEMENT_3D ( 'NONE', #155, #130, #178 ) ;
#225 = DIRECTION ( 'NONE',  ( 0.0000000000000000000, 1.000000000000000000, 0.0000000000000000000 ) ) ;
#226 = DIRECTION ( 'NONE',  ( 3.491481338843133355E-15, -1.224646799147353207E-16, 1.000000000000000000 ) ) ;
#227 = PRODUCT_RELATED_PRODUCT_CATEGORY ( 'detail', '', ( #105 ) ) ;
#228 = DIRECTION ( 'NONE',  ( 0.0000000000000000000, 1.000000000000000000, 0.0000000000000000000 ) ) ;
#229 = EDGE_LOOP ( 'NONE', ( #38 ) ) ;
#230 = AXIS2_PLACEMENT_3D ( 'NONE', #272, #23, #42 ) ;
#231 = CARTESIAN_POINT ( 'NONE',  ( 6.982962677686266711E-15, -2.449293598294706414E-16, 2.000000000000000000 ) ) ;
#232 = FACE_OUTER_BOUND ( 'NONE', #229, .T. ) ;
#233 = CARTESIAN_POINT ( 'NONE',  ( 1.042207179644675275E-13, 0.7499999999999947820, 29.84999999999999787 ) ) ;
#234 = AXIS2_PLACEMENT_3D ( 'NONE', #231, #1, #186 ) ;
#235 = EDGE_CURVE ( 'NONE', #90, #90, #48, .T. ) ;
#236 = VERTEX_POINT ( 'NONE', #278 ) ;
#237 = CARTESIAN_POINT ( 'NONE',  ( 1.047444401652940007E-13, 0.5999999999999949818, 30.00000000000000000 ) ) ;
#238 = EDGE_LOOP ( 'NONE', ( #279 ) ) ;
#239 = CALENDAR_DATE ( 2021, 17, 12 ) ;
#240 = AXIS2_PLACEMENT_3D ( 'NONE', #33, #131, #228 ) ;
#241 = DATE_AND_TIME ( #239, #43 ) ;
#242 = ORIENTED_EDGE ( 'NONE', *, *, #139, .T. ) ;
#243 = COORDINATED_UNIVERSAL_TIME_OFFSET ( 1, 0, .AHEAD. ) ;
#244 = AXIS2_PLACEMENT_3D ( 'NONE', #4, #119, #89 ) ;
#245 = EDGE_CURVE ( 'NONE', #259, #259, #221, .T. ) ;
#246 = FACE_OUTER_BOUND ( 'NONE', #8, .T. ) ;
#247 = CONICAL_SURFACE ( 'NONE', #230, 0.5999999999999986455, 0.7853981633974450594 ) ;
#248 = PLANE ( 'NONE',  #63 ) ;
#249 = FACE_OUTER_BOUND ( 'NONE', #288, .T. ) ;
#250 = EDGE_LOOP ( 'NONE', ( #141 ) ) ;
#251 = CARTESIAN_POINT ( 'NONE',  ( 1.494521065276871680E-14, -5.242074240774983291E-16, 4.280478456665806952 ) ) ;
#252 = DIRECTION ( 'NONE',  ( -4.275831445896958607E-31, -1.000000000000000000, -1.224646799147353207E-16 ) ) ;
#253 = TOROIDAL_SURFACE ( 'NONE', #134, 2.209500000000000242, 2.000000000000000000 ) ;
#254 = FACE_OUTER_BOUND ( 'NONE', #15, .T. ) ;
#255 = EDGE_LOOP ( 'NONE', ( #159 ) ) ;
#256 = VERTEX_POINT ( 'NONE', #233 ) ;
#257 = CARTESIAN_POINT ( 'NONE',  ( 1.494521065276871680E-14, -5.242074240774983291E-16, 4.280478456665806952 ) ) ;
#258 = APPROVAL_PERSON_ORGANIZATION ( #147, #70, #125 ) ;
#259 = VERTEX_POINT ( 'NONE', #143 ) ;
#260 = CARTESIAN_POINT ( 'NONE',  ( 0.0000000000000000000, 0.0000000000000000000, 0.0000000000000000000 ) ) ;
#261 = ORGANIZATION ( 'UNSPECIFIED', 'UNSPECIFIED', '' ) ;
#262 = CALENDAR_DATE ( 2021, 17, 12 ) ;
#263 = EDGE_LOOP ( 'NONE', ( #35 ) ) ;
#264 = COORDINATED_UNIVERSAL_TIME_OFFSET ( 1, 0, .AHEAD. ) ;
#265 = CC_DESIGN_SECURITY_CLASSIFICATION ( #296, ( #85 ) ) ;
#266 = ADVANCED_FACE ( 'NONE', ( #232, #37 ), #247, .T. ) ;
#267 = CARTESIAN_POINT ( 'NONE',  ( 6.982962677686265133E-15, -4.336808689942017736E-16, 1.999999999999999556 ) ) ;
#268 = FACE_OUTER_BOUND ( 'NONE', #103, .T. ) ;
#269 = CIRCLE ( 'NONE', #111, 0.1595526133420959169 ) ;
#270 = DIRECTION ( 'NONE',  ( -4.275831445896958607E-31, -1.000000000000000000, -1.224646799147353207E-16 ) ) ;
#271 = EDGE_LOOP ( 'NONE', ( #65 ) ) ;
#272 = CARTESIAN_POINT ( 'NONE',  ( 1.047444401652940007E-13, -3.673940397442059178E-15, 30.00000000000000000 ) ) ;
#273 = EDGE_LOOP ( 'NONE', ( #176 ) ) ;
#274 = AXIS2_PLACEMENT_3D ( 'NONE', #144, #135, #216 ) ;
#275 = ADVANCED_FACE ( 'NONE', ( #120 ), #67, .F. ) ;
#276 = VERTEX_POINT ( 'NONE', #165 ) ;
#277 = PERSON_AND_ORGANIZATION ( #79, #261 ) ;
#278 = CARTESIAN_POINT ( 'NONE',  ( -7.097759348936855360E-32, 0.08499999999999999223, -2.032879073410320814E-17 ) ) ;
#279 = ORIENTED_EDGE ( 'NONE', *, *, #107, .T. ) ;
#280 = DATE_AND_TIME ( #198, #169 ) ;
#281 = DIRECTION ( 'NONE',  ( -3.491481338843133355E-15, 1.224646799147353207E-16, -1.000000000000000000 ) ) ;
#282 = AXIS2_PLACEMENT_3D ( 'NONE', #83, #9, #133 ) ;
#283 = APPROVAL_PERSON_ORGANIZATION ( #73, #24, #286 ) ;
#284 = ORIENTED_EDGE ( 'NONE', *, *, #160, .F. ) ;
#285 = DATE_AND_TIME ( #25, #10 ) ;
#286 = APPROVAL_ROLE ( '' ) ;
#287 = AXIS2_PLACEMENT_3D ( 'NONE', #207, #184, #180 ) ;
#288 = EDGE_LOOP ( 'NONE', ( #242 ) ) ;
#289 = DATE_TIME_ROLE ( 'creation_date' ) ;
#290 = EDGE_CURVE ( 'NONE', #276, #276, #269, .T. ) ;
#291 = EDGE_LOOP ( 'NONE', ( #116 ) ) ;
#292 = CONICAL_SURFACE ( 'NONE', #287, 0.1595526133420959169, 1.047197551196592746 ) ;
#293 = FACE_OUTER_BOUND ( 'NONE', #250, .T. ) ;
#294 = CIRCLE ( 'NONE', #161, 0.5999999999999986455 ) ;
#295 = FACE_BOUND ( 'NONE', #40, .T. ) ;
#296 = SECURITY_CLASSIFICATION ( '', '', #193 ) ;
#297 = FACE_OUTER_BOUND ( 'NONE', #145, .T. ) ;
#298 = EDGE_CURVE ( 'NONE', #256, #256, #173, .T. ) ;
#299 = DIRECTION ( 'NONE',  ( 4.275831445896959482E-31, 1.000000000000000000, 1.224646799147353207E-16 ) ) ;
#300 = CYLINDRICAL_SURFACE ( 'NONE', #244, 0.7499999999999976685 ) ;
#301 = EDGE_CURVE ( 'NONE', #236, #236, #142, .T. ) ;
#302 = VERTEX_POINT ( 'NONE', #61 ) ;
#303 = AXIS2_PLACEMENT_3D ( 'NONE', #140, #281, #299 ) ;
ENDSEC;
END-ISO-10303-21;
