ISO-10303-21;
HEADER;
FILE_DESCRIPTION (( 'STEP AP203' ),
    '1' );
FILE_NAME ('974605.step',
    '2021-11-30T08:32:53',
    ( '' ),
    ( '' ),
    'SwSTEP 2.0',
    'SolidWorks 2019',
    '' );
FILE_SCHEMA (( 'CONFIG_CONTROL_DESIGN' ));
ENDSEC;

DATA;
#1 = DIRECTION ( 'NONE',  ( -3.491481338843133355E-15, 1.224646799147353207E-16, -1.000000000000000000 ) ) ;
#2 = CONICAL_SURFACE ( 'NONE', #172, 1.200000000000001732, 0.7853981633974453924 ) ;
#3 = DIRECTION ( 'NONE',  ( 0.0000000000000000000, 1.000000000000000000, 0.0000000000000000000 ) ) ;
#4 = EDGE_CURVE ( 'NONE', #287, #287, #279, .T. ) ;
#5 = DIRECTION ( 'NONE',  ( 4.275831445896958607E-31, 1.000000000000000000, 1.224646799147353454E-16 ) ) ;
#6 = VERTEX_POINT ( 'NONE', #104 ) ;
#7 = EDGE_CURVE ( 'NONE', #6, #6, #22, .T. ) ;
#8 = CIRCLE ( 'NONE', #96, 0.8834999999999999520 ) ;
#9 = VERTEX_POINT ( 'NONE', #106 ) ;
#10 = LOCAL_TIME ( 9, 32, 53.00000000000000000, #61 ) ;
#11 = VERTEX_POINT ( 'NONE', #272 ) ;
#12 = PERSON_AND_ORGANIZATION ( #64, #105 ) ;
#13 = CC_DESIGN_APPROVAL ( #169, ( #131 ) ) ;
#14 = ORIENTED_EDGE ( 'NONE', *, *, #251, .T. ) ;
#15 = ADVANCED_BREP_SHAPE_REPRESENTATION ( '974605', ( #80, #182, #233 ), #90 ) ;
#16 = DATE_TIME_ROLE ( 'creation_date' ) ;
#17 = CIRCLE ( 'NONE', #178, 0.7800000000000011369 ) ;
#18 = CALENDAR_DATE ( 2021, 30, 11 ) ;
#19 = DIRECTION ( 'NONE',  ( 0.0000000000000000000, 1.000000000000000000, 0.0000000000000000000 ) ) ;
#20 = DIRECTION ( 'NONE',  ( 0.0000000000000000000, 1.000000000000000000, 0.0000000000000000000 ) ) ;
#21 = DIRECTION ( 'NONE',  ( -3.491481338843133355E-15, 1.224646799147353207E-16, -1.000000000000000000 ) ) ;
#22 = CIRCLE ( 'NONE', #97, 0.7799999999999998046 ) ;
#23 = CIRCLE ( 'NONE', #62, 1.500000000000001554 ) ;
#24 = FACE_BOUND ( 'NONE', #227, .T. ) ;
#25 = ORIENTED_EDGE ( 'NONE', *, *, #7, .F. ) ;
#26 = ADVANCED_FACE ( 'NONE', ( #190, #160 ), #115, .T. ) ;
#27 = CARTESIAN_POINT ( 'NONE',  ( -1.580266986687724991E-31, 5.542830447109268773E-33, -4.526064536296018620E-17 ) ) ;
#28 = AXIS2_PLACEMENT_3D ( 'NONE', #198, #33, #5 ) ;
#29 = FACE_OUTER_BOUND ( 'NONE', #38, .T. ) ;
#30 = ADVANCED_FACE ( 'NONE', ( #303, #99 ), #228, .T. ) ;
#31 = CARTESIAN_POINT ( 'NONE',  ( 2.506627765991136237E-14, 0.7800000000000003597, 7.179267258583378108 ) ) ;
#32 = AXIS2_PLACEMENT_3D ( 'NONE', #209, #232, #302 ) ;
#33 = DIRECTION ( 'NONE',  ( -3.491481338843133355E-15, 1.224646799147353207E-16, -1.000000000000000000 ) ) ;
#34 = COORDINATED_UNIVERSAL_TIME_OFFSET ( 1, 0, .AHEAD. ) ;
#35 = COORDINATED_UNIVERSAL_TIME_OFFSET ( 1, 0, .AHEAD. ) ;
#36 = APPLICATION_CONTEXT ( 'configuration controlled 3d designs of mechanical parts and assemblies' ) ;
#37 = DIRECTION ( 'NONE',  ( 0.0000000000000000000, 0.0000000000000000000, 1.000000000000000000 ) ) ;
#38 = EDGE_LOOP ( 'NONE', ( #154 ) ) ;
#39 =( LENGTH_UNIT ( ) NAMED_UNIT ( * ) SI_UNIT ( .MILLI., .METRE. ) );
#40 = DATE_AND_TIME ( #199, #10 ) ;
#41 = EDGE_LOOP ( 'NONE', ( #14 ) ) ;
#42 = ORIENTED_EDGE ( 'NONE', *, *, #251, .F. ) ;
#43 = AXIS2_PLACEMENT_3D ( 'NONE', #265, #194, #214 ) ;
#44 = ORIENTED_EDGE ( 'NONE', *, *, #4, .T. ) ;
#45 = APPROVAL_DATE_TIME ( #276, #169 ) ;
#46 = DIRECTION ( 'NONE',  ( -3.491481338843133355E-15, 1.224646799147353207E-16, -1.000000000000000000 ) ) ;
#47 = CIRCLE ( 'NONE', #166, 0.8103844939755813215 ) ;
#48 = PRODUCT_DEFINITION_FORMATION_WITH_SPECIFIED_SOURCE ( 'ANY', '', #91, .NOT_KNOWN. ) ;
#49 = DIRECTION ( 'NONE',  ( 0.0000000000000000000, 1.000000000000000000, 0.0000000000000000000 ) ) ;
#50 = DIRECTION ( 'NONE',  ( -3.491481338843133355E-15, 1.224646799147353207E-16, -1.000000000000000000 ) ) ;
#51 = LOCAL_TIME ( 9, 32, 53.00000000000000000, #208 ) ;
#52 = DIRECTION ( 'NONE',  ( -3.491481338843133355E-15, 1.224646799147353207E-16, -1.000000000000000000 ) ) ;
#53 = FACE_OUTER_BOUND ( 'NONE', #259, .T. ) ;
#54 = EDGE_CURVE ( 'NONE', #146, #146, #8, .T. ) ;
#55 = FACE_OUTER_BOUND ( 'NONE', #183, .T. ) ;
#56 = VERTEX_POINT ( 'NONE', #147 ) ;
#57 = PERSON_AND_ORGANIZATION_ROLE ( 'design_supplier' ) ;
#58 = EDGE_CURVE ( 'NONE', #241, #241, #17, .T. ) ;
#59 = APPROVAL_STATUS ( 'not_yet_approved' ) ;
#60 = EDGE_LOOP ( 'NONE', ( #42 ) ) ;
#61 = COORDINATED_UNIVERSAL_TIME_OFFSET ( 1, 0, .AHEAD. ) ;
#62 = AXIS2_PLACEMENT_3D ( 'NONE', #219, #143, #103 ) ;
#63 = ORIENTED_EDGE ( 'NONE', *, *, #58, .T. ) ;
#64 = PERSON ( 'UNSPECIFIED', 'UNSPECIFIED', 'UNSPECIFIED', ('UNSPECIFIED'), ('UNSPECIFIED'), ('UNSPECIFIED') ) ;
#65 = EDGE_LOOP ( 'NONE', ( #159 ) ) ;
#66 = CIRCLE ( 'NONE', #289, 1.499999999999996669 ) ;
#67 = CYLINDRICAL_SURFACE ( 'NONE', #71, 0.8834999999999995079 ) ;
#68 = EDGE_LOOP ( 'NONE', ( #271 ) ) ;
#69 = CARTESIAN_POINT ( 'NONE',  ( 2.444036937190193349E-14, -8.572527594031473190E-16, 7.000000000000000000 ) ) ;
#70 = CC_DESIGN_DATE_AND_TIME_ASSIGNMENT ( #245, #108, ( #131 ) ) ;
#71 = AXIS2_PLACEMENT_3D ( 'NONE', #140, #21, #255 ) ;
#72 = CARTESIAN_POINT ( 'NONE',  ( 8.728703347107831416E-16, -3.061616997868382402E-17, 0.2499999999999999445 ) ) ;
#73 = PLANE ( 'NONE',  #210 ) ;
#74 = PRODUCT_RELATED_PRODUCT_CATEGORY ( 'detail', '', ( #91 ) ) ;
#75 = LOCAL_TIME ( 9, 32, 53.00000000000000000, #34 ) ;
#76 = FACE_OUTER_BOUND ( 'NONE', #280, .T. ) ;
#77 = DIRECTION ( 'NONE',  ( -3.491481338843133355E-15, 1.224646799147353207E-16, -1.000000000000000000 ) ) ;
#78 = DESIGN_CONTEXT ( 'detailed design', #36, 'design' ) ;
#79 = CARTESIAN_POINT ( 'NONE',  ( 1.745740669421566678E-13, 8.998558695971067645E-33, 50.00000000000000000 ) ) ;
#80 = MANIFOLD_SOLID_BREP ( 'Corps-Déplacer/Copier1[1]', #225 ) ;
#81 = CC_DESIGN_PERSON_AND_ORGANIZATION_ASSIGNMENT ( #243, #57, ( #48 ) ) ;
#82 = DATE_AND_TIME ( #297, #273 ) ;
#83 = PERSON_AND_ORGANIZATION_ROLE ( 'creator' ) ;
#84 = ORIENTED_EDGE ( 'NONE', *, *, #94, .T. ) ;
#85 = PERSON_AND_ORGANIZATION ( #64, #105 ) ;
#86 = ORIENTED_EDGE ( 'NONE', *, *, #256, .F. ) ;
#87 = CC_DESIGN_SECURITY_CLASSIFICATION ( #131, ( #48 ) ) ;
#88 = APPLICATION_PROTOCOL_DEFINITION ( 'international standard', 'config_control_design', 1994, #36 ) ;
#89 = EDGE_LOOP ( 'NONE', ( #63 ) ) ;
#90 =( GEOMETRIC_REPRESENTATION_CONTEXT ( 3 ) GLOBAL_UNCERTAINTY_ASSIGNED_CONTEXT ( ( #240 ) ) GLOBAL_UNIT_ASSIGNED_CONTEXT ( ( #39, #133, #153 ) ) REPRESENTATION_CONTEXT ( 'NONE', 'WORKASPACE' ) );
#91 = PRODUCT ( '974605', '974605', '', ( #247 ) ) ;
#92 = ORIENTED_EDGE ( 'NONE', *, *, #54, .F. ) ;
#93 = CARTESIAN_POINT ( 'NONE',  ( 2.506627765991136237E-14, -8.792066668447528551E-16, 7.179267258583378108 ) ) ;
#94 = EDGE_CURVE ( 'NONE', #9, #9, #284, .T. ) ;
#95 = FACE_OUTER_BOUND ( 'NONE', #285, .T. ) ;
#96 = AXIS2_PLACEMENT_3D ( 'NONE', #230, #283, #300 ) ;
#97 = AXIS2_PLACEMENT_3D ( 'NONE', #117, #137, #20 ) ;
#98 = EDGE_LOOP ( 'NONE', ( #249 ) ) ;
#99 = FACE_OUTER_BOUND ( 'NONE', #65, .T. ) ;
#100 = CARTESIAN_POINT ( 'NONE',  ( 0.0000000000000000000, 0.0000000000000000000, 0.0000000000000000000 ) ) ;
#101 = PLANE ( 'NONE',  #215 ) ;
#102 = CC_DESIGN_PERSON_AND_ORGANIZATION_ASSIGNMENT ( #244, #267, ( #48 ) ) ;
#103 = DIRECTION ( 'NONE',  ( 0.0000000000000000000, 1.000000000000000000, 0.0000000000000000000 ) ) ;
#104 = CARTESIAN_POINT ( 'NONE',  ( 5.935518276033326704E-14, 0.7799999999999976952, 17.00000000000000000 ) ) ;
#105 = ORGANIZATION ( 'UNSPECIFIED', 'UNSPECIFIED', '' ) ;
#106 = CARTESIAN_POINT ( 'NONE',  ( 2.444036937190193349E-14, 0.8834999999999990639, 7.000000000000000000 ) ) ;
#107 = DIRECTION ( 'NONE',  ( -3.491481338843133355E-15, 1.224646799147353207E-16, -1.000000000000000000 ) ) ;
#108 = DATE_TIME_ROLE ( 'classification_date' ) ;
#109 = CLOSED_SHELL ( 'NONE', ( #200, #30, #174, #207 ) ) ;
#110 = CC_DESIGN_DATE_AND_TIME_ASSIGNMENT ( #40, #16, ( #135 ) ) ;
#111 = DIRECTION ( 'NONE',  ( 1.000000000000000000, 0.0000000000000000000, 0.0000000000000000000 ) ) ;
#112 = APPROVAL_ROLE ( '' ) ;
#113 = CARTESIAN_POINT ( 'NONE',  ( 6.056776150402963091E-14, -2.124431095542013992E-15, 17.34729635533384595 ) ) ;
#114 = DIRECTION ( 'NONE',  ( -3.491481338843133355E-15, 1.224646799147353207E-16, -1.000000000000000000 ) ) ;
#115 = CYLINDRICAL_SURFACE ( 'NONE', #195, 0.7800000000000005818 ) ;
#116 = CIRCLE ( 'NONE', #152, 0.8834999999999990639 ) ;
#117 = CARTESIAN_POINT ( 'NONE',  ( 5.935518276033326704E-14, -2.081899558550500280E-15, 17.00000000000000000 ) ) ;
#118 = ORIENTED_EDGE ( 'NONE', *, *, #58, .F. ) ;
#119 = DIRECTION ( 'NONE',  ( 3.491481338843133355E-15, -1.224646799147353207E-16, 1.000000000000000000 ) ) ;
#120 = AXIS2_PLACEMENT_3D ( 'NONE', #69, #162, #49 ) ;
#121 = CARTESIAN_POINT ( 'NONE',  ( 5.935518276033326704E-14, -2.168404344971008868E-15, 17.00000000000000000 ) ) ;
#122 = CARTESIAN_POINT ( 'NONE',  ( 1.745740669421566678E-13, 1.199999999999995515, 50.00000000000000000 ) ) ;
#123 = DIRECTION ( 'NONE',  ( 4.275831445896958607E-31, 1.000000000000000000, 1.224646799147353207E-16 ) ) ;
#124 = ADVANCED_FACE ( 'NONE', ( #253, #250 ), #257, .T. ) ;
#125 = CC_DESIGN_APPROVAL ( #185, ( #48 ) ) ;
#126 = CARTESIAN_POINT ( 'NONE',  ( 7.422295857362714504E-14, 1.499999999999994005, 21.25830023717674067 ) ) ;
#127 = APPROVAL_STATUS ( 'not_yet_approved' ) ;
#128 = APPROVAL_STATUS ( 'not_yet_approved' ) ;
#129 = CC_DESIGN_PERSON_AND_ORGANIZATION_ASSIGNMENT ( #148, #270, ( #131 ) ) ;
#130 = AXIS2_PLACEMENT_3D ( 'NONE', #229, #46, #19 ) ;
#131 = SECURITY_CLASSIFICATION ( '', '', #175 ) ;
#132 = DATE_AND_TIME ( #274, #258 ) ;
#133 =( NAMED_UNIT ( * ) PLANE_ANGLE_UNIT ( ) SI_UNIT ( $, .RADIAN. ) );
#134 = ORIENTED_EDGE ( 'NONE', *, *, #235, .F. ) ;
#135 = PRODUCT_DEFINITION ( 'UNKNOWN', '', #48, #78 ) ;
#136 = CARTESIAN_POINT ( 'NONE',  ( 1.745740669421566678E-13, -6.123233995736766085E-15, 50.00000000000000000 ) ) ;
#137 = DIRECTION ( 'NONE',  ( -3.491481338843133355E-15, 1.224646799147353207E-16, -1.000000000000000000 ) ) ;
#138 = DIRECTION ( 'NONE',  ( 0.0000000000000000000, 1.000000000000000000, 0.0000000000000000000 ) ) ;
#139 = EDGE_CURVE ( 'NONE', #290, #290, #47, .T. ) ;
#140 = CARTESIAN_POINT ( 'NONE',  ( 0.0000000000000000000, 0.0000000000000000000, 0.0000000000000000000 ) ) ;
#141 = CC_DESIGN_APPROVAL ( #281, ( #135 ) ) ;
#142 = ORIENTED_EDGE ( 'NONE', *, *, #139, .T. ) ;
#143 = DIRECTION ( 'NONE',  ( -3.491481338843133355E-15, 1.224646799147353207E-16, -1.000000000000000000 ) ) ;
#144 = DIRECTION ( 'NONE',  ( -3.491481338843133355E-15, 1.224646799147353207E-16, -1.000000000000000000 ) ) ;
#145 = DIRECTION ( 'NONE',  ( -4.275831445896958607E-31, -1.000000000000000000, -1.224646799147353207E-16 ) ) ;
#146 = VERTEX_POINT ( 'NONE', #221 ) ;
#147 = CARTESIAN_POINT ( 'NONE',  ( 0.0000000000000000000, 0.7391624327025949626, 0.0000000000000000000 ) ) ;
#148 = PERSON_AND_ORGANIZATION ( #64, #105 ) ;
#149 = CC_DESIGN_PERSON_AND_ORGANIZATION_ASSIGNMENT ( #12, #83, ( #135 ) ) ;
#150 = PERSON_AND_ORGANIZATION ( #64, #105 ) ;
#151 = CALENDAR_DATE ( 2021, 30, 11 ) ;
#152 = AXIS2_PLACEMENT_3D ( 'NONE', #197, #52, #164 ) ;
#153 =( NAMED_UNIT ( * ) SI_UNIT ( $, .STERADIAN. ) SOLID_ANGLE_UNIT ( ) );
#154 = ORIENTED_EDGE ( 'NONE', *, *, #54, .T. ) ;
#155 = ADVANCED_FACE ( 'NONE', ( #211, #278 ), #299, .T. ) ;
#156 = SHAPE_DEFINITION_REPRESENTATION ( #254, #15 ) ;
#157 = APPROVAL_PERSON_ORGANIZATION ( #293, #169, #224 ) ;
#158 = CIRCLE ( 'NONE', #201, 0.7391624327025949626 ) ;
#159 = ORIENTED_EDGE ( 'NONE', *, *, #256, .T. ) ;
#160 = FACE_OUTER_BOUND ( 'NONE', #282, .T. ) ;
#161 = DIRECTION ( 'NONE',  ( -4.359773501725496094E-31, -1.000000000000000000, -1.227167144861919169E-16 ) ) ;
#162 = DIRECTION ( 'NONE',  ( -3.491481338843133355E-15, 1.224646799147353207E-16, -1.000000000000000000 ) ) ;
#163 = FACE_OUTER_BOUND ( 'NONE', #246, .T. ) ;
#164 = DIRECTION ( 'NONE',  ( 4.359773501725496094E-31, 1.000000000000000000, 1.227167144861919169E-16 ) ) ;
#165 = CARTESIAN_POINT ( 'NONE',  ( 7.422295857362714504E-14, -2.603390934077191416E-15, 21.25830023717674067 ) ) ;
#166 = AXIS2_PLACEMENT_3D ( 'NONE', #113, #188, #184 ) ;
#167 = AXIS2_PLACEMENT_3D ( 'NONE', #121, #50, #217 ) ;
#168 = FACE_OUTER_BOUND ( 'NONE', #68, .T. ) ;
#169 = APPROVAL ( #128, 'UNSPECIFIED' ) ;
#170 = FACE_OUTER_BOUND ( 'NONE', #60, .T. ) ;
#171 = APPROVAL_DATE_TIME ( #132, #185 ) ;
#172 = AXIS2_PLACEMENT_3D ( 'NONE', #286, #107, #3 ) ;
#173 = CARTESIAN_POINT ( 'NONE',  ( 1.735266225405037467E-13, 1.499999999999995559, 49.70000000000000284 ) ) ;
#174 = ADVANCED_FACE ( 'NONE', ( #301, #95 ), #67, .T. ) ;
#175 = SECURITY_CLASSIFICATION_LEVEL ( 'unclassified' ) ;
#176 = EDGE_LOOP ( 'NONE', ( #86 ) ) ;
#177 = PERSON_AND_ORGANIZATION_ROLE ( 'design_owner' ) ;
#178 = AXIS2_PLACEMENT_3D ( 'NONE', #93, #1, #213 ) ;
#179 = APPROVAL_PERSON_ORGANIZATION ( #248, #281, #202 ) ;
#180 = COORDINATED_UNIVERSAL_TIME_OFFSET ( 1, 0, .AHEAD. ) ;
#181 = EDGE_LOOP ( 'NONE', ( #134 ) ) ;
#182 = MANIFOLD_SOLID_BREP ( 'Corps-Déplacer/Copier1[2]', #109 ) ;
#183 = EDGE_LOOP ( 'NONE', ( #203 ) ) ;
#184 = DIRECTION ( 'NONE',  ( 0.0000000000000000000, 1.000000000000000000, 0.0000000000000000000 ) ) ;
#185 = APPROVAL ( #127, 'UNSPECIFIED' ) ;
#186 = AXIS2_PLACEMENT_3D ( 'NONE', #136, #212, #138 ) ;
#187 = DIRECTION ( 'NONE',  ( 3.491481338843133355E-15, -1.224646799147353207E-16, 1.000000000000000000 ) ) ;
#188 = DIRECTION ( 'NONE',  ( -3.491481338843133355E-15, 1.224646799147353207E-16, -1.000000000000000000 ) ) ;
#189 = ORIENTED_EDGE ( 'NONE', *, *, #7, .T. ) ;
#190 = FACE_OUTER_BOUND ( 'NONE', #236, .T. ) ;
#191 = ADVANCED_FACE ( 'NONE', ( #234, #24 ), #2, .T. ) ;
#192 = CARTESIAN_POINT ( 'NONE',  ( 2.444036937190193349E-14, 6.625188839908742216E-33, 7.000000000000000000 ) ) ;
#193 = DIRECTION ( 'NONE',  ( -4.275831445896958607E-31, -1.000000000000000000, -1.224646799147353207E-16 ) ) ;
#194 = DIRECTION ( 'NONE',  ( 3.491481338843133355E-15, -1.224646799147353207E-16, 1.000000000000000000 ) ) ;
#195 = AXIS2_PLACEMENT_3D ( 'NONE', #100, #114, #206 ) ;
#196 = TOROIDAL_SURFACE ( 'NONE', #167, 2.779999999999999805, 2.000000000000000000 ) ;
#197 = CARTESIAN_POINT ( 'NONE',  ( 8.728703347107831416E-16, -3.061616997868382402E-17, 0.2499999999999999445 ) ) ;
#198 = CARTESIAN_POINT ( 'NONE',  ( 0.0000000000000000000, 0.0000000000000000000, 0.0000000000000000000 ) ) ;
#199 = CALENDAR_DATE ( 2021, 30, 11 ) ;
#200 = ADVANCED_FACE ( 'NONE', ( #168 ), #264, .F. ) ;
#201 = AXIS2_PLACEMENT_3D ( 'NONE', #218, #292, #123 ) ;
#202 = APPROVAL_ROLE ( '' ) ;
#203 = ORIENTED_EDGE ( 'NONE', *, *, #4, .F. ) ;
#204 = ORIENTED_EDGE ( 'NONE', *, *, #94, .F. ) ;
#205 = ORIENTED_EDGE ( 'NONE', *, *, #139, .F. ) ;
#206 = DIRECTION ( 'NONE',  ( 4.275831445896958607E-31, 1.000000000000000000, 1.224646799147352961E-16 ) ) ;
#207 = ADVANCED_FACE ( 'NONE', ( #239 ), #242, .T. ) ;
#208 = COORDINATED_UNIVERSAL_TIME_OFFSET ( 1, 0, .AHEAD. ) ;
#209 = CARTESIAN_POINT ( 'NONE',  ( 7.422295857362714504E-14, -2.603390934077191416E-15, 21.25830023717674067 ) ) ;
#210 = AXIS2_PLACEMENT_3D ( 'NONE', #79, #144, #238 ) ;
#211 = FACE_BOUND ( 'NONE', #298, .T. ) ;
#212 = DIRECTION ( 'NONE',  ( -3.491481338843133355E-15, 1.224646799147353207E-16, -1.000000000000000000 ) ) ;
#213 = DIRECTION ( 'NONE',  ( 0.0000000000000000000, 1.000000000000000000, 0.0000000000000000000 ) ) ;
#214 = DIRECTION ( 'NONE',  ( -4.275831445896958607E-31, -1.000000000000000000, -1.224646799147353207E-16 ) ) ;
#215 = AXIS2_PLACEMENT_3D ( 'NONE', #192, #262, #193 ) ;
#216 = APPLICATION_CONTEXT ( 'configuration controlled 3d designs of mechanical parts and assemblies' ) ;
#217 = DIRECTION ( 'NONE',  ( 4.275831445896958607E-31, 1.000000000000000000, 1.224646799147353207E-16 ) ) ;
#218 = CARTESIAN_POINT ( 'NONE',  ( -3.160533973375449983E-31, 1.108566089421853755E-32, -9.052129072592037240E-17 ) ) ;
#219 = CARTESIAN_POINT ( 'NONE',  ( 1.735266225405037467E-13, -6.086494591762345225E-15, 49.70000000000000284 ) ) ;
#220 = APPROVAL_PERSON_ORGANIZATION ( #150, #185, #112 ) ;
#221 = CARTESIAN_POINT ( 'NONE',  ( 2.444036937190193349E-14, 0.8834999999999990639, 7.000000000000000000 ) ) ;
#222 = APPROVAL_DATE_TIME ( #82, #281 ) ;
#223 = ADVANCED_FACE ( 'NONE', ( #29 ), #101, .F. ) ;
#224 = APPROVAL_ROLE ( '' ) ;
#225 = CLOSED_SHELL ( 'NONE', ( #223, #124, #26, #291, #155, #231, #191, #277 ) ) ;
#226 = APPLICATION_PROTOCOL_DEFINITION ( 'international standard', 'config_control_design', 1994, #216 ) ;
#227 = EDGE_LOOP ( 'NONE', ( #44 ) ) ;
#228 = CONICAL_SURFACE ( 'NONE', #263, 0.8834999999999990639, 0.5235987755982919323 ) ;
#229 = CARTESIAN_POINT ( 'NONE',  ( 2.444036937190193349E-14, -8.572527594031473190E-16, 7.000000000000000000 ) ) ;
#230 = CARTESIAN_POINT ( 'NONE',  ( 2.444036937190193349E-14, -8.572527594031473190E-16, 7.000000000000000000 ) ) ;
#231 = ADVANCED_FACE ( 'NONE', ( #170, #163 ), #288, .T. ) ;
#232 = DIRECTION ( 'NONE',  ( 3.491481338843133355E-15, -1.224646799147353207E-16, 1.000000000000000000 ) ) ;
#233 = AXIS2_PLACEMENT_3D ( 'NONE', #295, #37, #111 ) ;
#234 = FACE_OUTER_BOUND ( 'NONE', #98, .T. ) ;
#235 = EDGE_CURVE ( 'NONE', #56, #56, #158, .T. ) ;
#236 = EDGE_LOOP ( 'NONE', ( #189 ) ) ;
#237 = VERTEX_POINT ( 'NONE', #126 ) ;
#238 = DIRECTION ( 'NONE',  ( 4.275831445896958607E-31, 1.000000000000000000, 1.224646799147353207E-16 ) ) ;
#239 = FACE_OUTER_BOUND ( 'NONE', #252, .T. ) ;
#240 = UNCERTAINTY_MEASURE_WITH_UNIT (LENGTH_MEASURE( 1.000000000000000082E-05 ), #39, 'distance_accuracy_value', 'NONE');
#241 = VERTEX_POINT ( 'NONE', #31 ) ;
#242 = PLANE ( 'NONE',  #43 ) ;
#243 = PERSON_AND_ORGANIZATION ( #64, #105 ) ;
#244 = PERSON_AND_ORGANIZATION ( #64, #105 ) ;
#245 = DATE_AND_TIME ( #151, #75 ) ;
#246 = EDGE_LOOP ( 'NONE', ( #275 ) ) ;
#247 = MECHANICAL_CONTEXT ( 'NONE', #216, 'mechanical' ) ;
#248 = PERSON_AND_ORGANIZATION ( #64, #105 ) ;
#249 = ORIENTED_EDGE ( 'NONE', *, *, #294, .F. ) ;
#250 = FACE_OUTER_BOUND ( 'NONE', #296, .T. ) ;
#251 = EDGE_CURVE ( 'NONE', #237, #237, #66, .T. ) ;
#252 = EDGE_LOOP ( 'NONE', ( #204 ) ) ;
#253 = FACE_BOUND ( 'NONE', #89, .T. ) ;
#254 = PRODUCT_DEFINITION_SHAPE ( 'NONE', 'NONE',  #135 ) ;
#255 = DIRECTION ( 'NONE',  ( 4.275831445896958607E-31, 1.000000000000000000, 1.224646799147353207E-16 ) ) ;
#256 = EDGE_CURVE ( 'NONE', #11, #11, #116, .T. ) ;
#257 = CONICAL_SURFACE ( 'NONE', #130, 0.8834999999999999520, 0.5235987755982953740 ) ;
#258 = LOCAL_TIME ( 9, 32, 53.00000000000000000, #35 ) ;
#259 = EDGE_LOOP ( 'NONE', ( #25 ) ) ;
#260 = DIRECTION ( 'NONE',  ( 0.0000000000000000000, 1.000000000000000000, 0.0000000000000000000 ) ) ;
#261 = CC_DESIGN_PERSON_AND_ORGANIZATION_ASSIGNMENT ( #85, #177, ( #91 ) ) ;
#262 = DIRECTION ( 'NONE',  ( 3.491481338843133355E-15, -1.224646799147353207E-16, 1.000000000000000000 ) ) ;
#263 = AXIS2_PLACEMENT_3D ( 'NONE', #72, #187, #161 ) ;
#264 = PLANE ( 'NONE',  #268 ) ;
#265 = CARTESIAN_POINT ( 'NONE',  ( 2.444036937190193349E-14, 6.625188839908742216E-33, 7.000000000000000000 ) ) ;
#266 = CARTESIAN_POINT ( 'NONE',  ( 6.056776150402963091E-14, 0.8103844939755791010, 17.34729635533384595 ) ) ;
#267 = PERSON_AND_ORGANIZATION_ROLE ( 'creator' ) ;
#268 = AXIS2_PLACEMENT_3D ( 'NONE', #27, #119, #145 ) ;
#269 = VERTEX_POINT ( 'NONE', #173 ) ;
#270 = PERSON_AND_ORGANIZATION_ROLE ( 'classification_officer' ) ;
#271 = ORIENTED_EDGE ( 'NONE', *, *, #235, .T. ) ;
#272 = CARTESIAN_POINT ( 'NONE',  ( 8.728703347107835360E-16, 0.8834999999999990639, 0.2500000000000000555 ) ) ;
#273 = LOCAL_TIME ( 9, 32, 53.00000000000000000, #180 ) ;
#274 = CALENDAR_DATE ( 2021, 30, 11 ) ;
#275 = ORIENTED_EDGE ( 'NONE', *, *, #294, .T. ) ;
#276 = DATE_AND_TIME ( #18, #51 ) ;
#277 = ADVANCED_FACE ( 'NONE', ( #55 ), #73, .F. ) ;
#278 = FACE_OUTER_BOUND ( 'NONE', #41, .T. ) ;
#279 = CIRCLE ( 'NONE', #186, 1.200000000000001732 ) ;
#280 = EDGE_LOOP ( 'NONE', ( #142 ) ) ;
#281 = APPROVAL ( #59, 'UNSPECIFIED' ) ;
#282 = EDGE_LOOP ( 'NONE', ( #118 ) ) ;
#283 = DIRECTION ( 'NONE',  ( -3.491481338843133355E-15, 1.224646799147353207E-16, -1.000000000000000000 ) ) ;
#284 = CIRCLE ( 'NONE', #120, 0.8834999999999999520 ) ;
#285 = EDGE_LOOP ( 'NONE', ( #84 ) ) ;
#286 = CARTESIAN_POINT ( 'NONE',  ( 1.745740669421566678E-13, -6.123233995736766085E-15, 50.00000000000000000 ) ) ;
#287 = VERTEX_POINT ( 'NONE', #122 ) ;
#288 = CYLINDRICAL_SURFACE ( 'NONE', #28, 1.499999999999999112 ) ;
#289 = AXIS2_PLACEMENT_3D ( 'NONE', #165, #77, #260 ) ;
#290 = VERTEX_POINT ( 'NONE', #266 ) ;
#291 = ADVANCED_FACE ( 'NONE', ( #53, #76 ), #196, .F. ) ;
#292 = DIRECTION ( 'NONE',  ( -3.491481338843133355E-15, 1.224646799147353207E-16, -1.000000000000000000 ) ) ;
#293 = PERSON_AND_ORGANIZATION ( #64, #105 ) ;
#294 = EDGE_CURVE ( 'NONE', #269, #269, #23, .T. ) ;
#295 = CARTESIAN_POINT ( 'NONE',  ( 0.0000000000000000000, 0.0000000000000000000, 0.0000000000000000000 ) ) ;
#296 = EDGE_LOOP ( 'NONE', ( #92 ) ) ;
#297 = CALENDAR_DATE ( 2021, 30, 11 ) ;
#298 = EDGE_LOOP ( 'NONE', ( #205 ) ) ;
#299 = CONICAL_SURFACE ( 'NONE', #32, 1.499999999999996669, 0.1745329251994259534 ) ;
#300 = DIRECTION ( 'NONE',  ( 0.0000000000000000000, 1.000000000000000000, 0.0000000000000000000 ) ) ;
#301 = FACE_OUTER_BOUND ( 'NONE', #176, .T. ) ;
#302 = DIRECTION ( 'NONE',  ( 0.0000000000000000000, -1.000000000000000000, 0.0000000000000000000 ) ) ;
#303 = FACE_BOUND ( 'NONE', #181, .T. ) ;
ENDSEC;
END-ISO-10303-21;
