ISO-10303-21;
HEADER;
FILE_DESCRIPTION (( 'STEP AP203' ),
    '1' );
FILE_NAME ('973910.step',
    '2021-11-30T08:32:53',
    ( '' ),
    ( '' ),
    'SwSTEP 2.0',
    'SolidWorks 2019',
    '' );
FILE_SCHEMA (( 'CONFIG_CONTROL_DESIGN' ));
ENDSEC;

DATA;
#1 = CARTESIAN_POINT ( 'NONE',  ( 8.728703347107829444E-16, -3.061616997868381785E-17, 0.2499999999999998890 ) ) ;
#2 = CIRCLE ( 'NONE', #231, 0.6800000000000009370 ) ;
#3 = CARTESIAN_POINT ( 'NONE',  ( 8.728703347107829444E-16, -3.061616997868381785E-17, 0.2499999999999998890 ) ) ;
#4 = ADVANCED_FACE ( 'NONE', ( #49 ), #161, .F. ) ;
#5 = DIRECTION ( 'NONE',  ( 3.491481338843133355E-15, -1.224646799147353207E-16, 1.000000000000000000 ) ) ;
#6 = DIRECTION ( 'NONE',  ( 0.0000000000000000000, 1.000000000000000000, 0.0000000000000000000 ) ) ;
#7 = CLOSED_SHELL ( 'NONE', ( #121, #236, #193, #50, #128, #197, #118, #4 ) ) ;
#8 = AXIS2_PLACEMENT_3D ( 'NONE', #55, #245, #164 ) ;
#9 = COORDINATED_UNIVERSAL_TIME_OFFSET ( 1, 0, .AHEAD. ) ;
#10 = DIRECTION ( 'NONE',  ( 0.0000000000000000000, -1.000000000000000000, 0.0000000000000000000 ) ) ;
#11 = APPROVAL ( #129, 'UNSPECIFIED' ) ;
#12 = CARTESIAN_POINT ( 'NONE',  ( 6.922011335999250184E-14, -2.427914745522297288E-15, 19.82542841913853238 ) ) ;
#13 = VERTEX_POINT ( 'NONE', #56 ) ;
#14 = VERTEX_POINT ( 'NONE', #178 ) ;
#15 = AXIS2_PLACEMENT_3D ( 'NONE', #1, #141, #43 ) ;
#16 = LOCAL_TIME ( 9, 32, 53.00000000000000000, #80 ) ;
#17 =( NAMED_UNIT ( * ) SI_UNIT ( $, .STERADIAN. ) SOLID_ANGLE_UNIT ( ) );
#18 = PERSON_AND_ORGANIZATION_ROLE ( 'creator' ) ;
#19 = APPROVAL_DATE_TIME ( #230, #263 ) ;
#20 = EDGE_LOOP ( 'NONE', ( #303 ) ) ;
#21 = CYLINDRICAL_SURFACE ( 'NONE', #97, 0.7834999999999995302 ) ;
#22 = FACE_OUTER_BOUND ( 'NONE', #130, .T. ) ;
#23 = AXIS2_PLACEMENT_3D ( 'NONE', #274, #119, #148 ) ;
#24 = DIRECTION ( 'NONE',  ( -4.916221938448596766E-31, -1.000000000000000000, -1.383793455629234870E-16 ) ) ;
#25 = VERTEX_POINT ( 'NONE', #293 ) ;
#26 = CC_DESIGN_DATE_AND_TIME_ASSIGNMENT ( #82, #131, ( #61 ) ) ;
#27 = CONICAL_SURFACE ( 'NONE', #8, 0.7834999999999999742, 0.5235987755982988157 ) ;
#28 = CARTESIAN_POINT ( 'NONE',  ( 5.237222008264700033E-14, 0.6799999999999982725, 15.00000000000000000 ) ) ;
#29 = AXIS2_PLACEMENT_3D ( 'NONE', #201, #99, #6 ) ;
#30 = CARTESIAN_POINT ( 'NONE',  ( 1.745740669421566678E-13, -6.123233995736766085E-15, 50.00000000000000000 ) ) ;
#31 = VERTEX_POINT ( 'NONE', #79 ) ;
#32 = FACE_OUTER_BOUND ( 'NONE', #264, .T. ) ;
#33 = EDGE_LOOP ( 'NONE', ( #202 ) ) ;
#34 = PERSON_AND_ORGANIZATION_ROLE ( 'creator' ) ;
#35 = AXIS2_PLACEMENT_3D ( 'NONE', #281, #140, #284 ) ;
#36 = CC_DESIGN_SECURITY_CLASSIFICATION ( #52, ( #282 ) ) ;
#37 = ORIENTED_EDGE ( 'NONE', *, *, #66, .T. ) ;
#38 = CALENDAR_DATE ( 2021, 30, 11 ) ;
#39 = ORIENTED_EDGE ( 'NONE', *, *, #248, .T. ) ;
#40 = CALENDAR_DATE ( 2021, 30, 11 ) ;
#41 = COORDINATED_UNIVERSAL_TIME_OFFSET ( 1, 0, .AHEAD. ) ;
#42 = TOROIDAL_SURFACE ( 'NONE', #157, 2.680000000000000160, 2.000000000000000444 ) ;
#43 = DIRECTION ( 'NONE',  ( 4.916221938448596766E-31, 1.000000000000000000, 1.383793455629234870E-16 ) ) ;
#44 = DATE_TIME_ROLE ( 'classification_date' ) ;
#45 = FACE_OUTER_BOUND ( 'NONE', #89, .T. ) ;
#46 = DIRECTION ( 'NONE',  ( 4.275831445896958607E-31, 1.000000000000000000, 1.224646799147353207E-16 ) ) ;
#47 = ORIENTED_EDGE ( 'NONE', *, *, #267, .F. ) ;
#48 = AXIS2_PLACEMENT_3D ( 'NONE', #30, #249, #221 ) ;
#49 = FACE_OUTER_BOUND ( 'NONE', #227, .T. ) ;
#50 = ADVANCED_FACE ( 'NONE', ( #286, #188 ), #42, .F. ) ;
#51 = DIRECTION ( 'NONE',  ( -3.491481338843133355E-15, 1.224646799147353207E-16, -1.000000000000000000 ) ) ;
#52 = SECURITY_CLASSIFICATION ( '', '', #179 ) ;
#53 = FACE_OUTER_BOUND ( 'NONE', #20, .T. ) ;
#54 = AXIS2_PLACEMENT_3D ( 'NONE', #241, #73, #296 ) ;
#55 = CARTESIAN_POINT ( 'NONE',  ( 2.444036937190193349E-14, -8.572527594031473190E-16, 7.000000000000000000 ) ) ;
#56 = CARTESIAN_POINT ( 'NONE',  ( 6.922011335999250184E-14, 1.499999999999994005, 19.82542841913853238 ) ) ;
#57 = CC_DESIGN_DATE_AND_TIME_ASSIGNMENT ( #258, #44, ( #52 ) ) ;
#58 = FACE_OUTER_BOUND ( 'NONE', #251, .T. ) ;
#59 = APPLICATION_PROTOCOL_DEFINITION ( 'international standard', 'config_control_design', 1994, #195 ) ;
#60 = EDGE_LOOP ( 'NONE', ( #172 ) ) ;
#61 = PRODUCT_DEFINITION ( 'UNKNOWN', '', #282, #155 ) ;
#62 = CARTESIAN_POINT ( 'NONE',  ( 1.745740669421566678E-13, 8.998558695971067645E-33, 50.00000000000000000 ) ) ;
#63 = PERSON_AND_ORGANIZATION_ROLE ( 'design_owner' ) ;
#64 = LOCAL_TIME ( 9, 32, 53.00000000000000000, #250 ) ;
#65 = EDGE_LOOP ( 'NONE', ( #276 ) ) ;
#66 = EDGE_CURVE ( 'NONE', #25, #25, #215, .T. ) ;
#67 = ORIENTED_EDGE ( 'NONE', *, *, #95, .T. ) ;
#68 = ORIENTED_EDGE ( 'NONE', *, *, #214, .F. ) ;
#69 = PLANE ( 'NONE',  #159 ) ;
#70 = AXIS2_PLACEMENT_3D ( 'NONE', #260, #139, #238 ) ;
#71 = CARTESIAN_POINT ( 'NONE',  ( 6.922011335999250184E-14, -2.427914745522297288E-15, 19.82542841913853238 ) ) ;
#72 = CC_DESIGN_APPROVAL ( #187, ( #52 ) ) ;
#73 = DIRECTION ( 'NONE',  ( -3.491481338843133355E-15, 1.224646799147353207E-16, -1.000000000000000000 ) ) ;
#74 = VERTEX_POINT ( 'NONE', #96 ) ;
#75 = AXIS2_PLACEMENT_3D ( 'NONE', #3, #287, #24 ) ;
#76 = ADVANCED_FACE ( 'NONE', ( #85, #163 ), #176, .T. ) ;
#77 =( GEOMETRIC_REPRESENTATION_CONTEXT ( 3 ) GLOBAL_UNCERTAINTY_ASSIGNED_CONTEXT ( ( #255 ) ) GLOBAL_UNIT_ASSIGNED_CONTEXT ( ( #86, #203, #17 ) ) REPRESENTATION_CONTEXT ( 'NONE', 'WORKASPACE' ) );
#78 = DIRECTION ( 'NONE',  ( -3.491481338843133355E-15, 1.224646799147353207E-16, -1.000000000000000000 ) ) ;
#79 = CARTESIAN_POINT ( 'NONE',  ( 2.444036937190193349E-14, 0.7834999999999991971, 7.000000000000000000 ) ) ;
#80 = COORDINATED_UNIVERSAL_TIME_OFFSET ( 1, 0, .AHEAD. ) ;
#81 = LOCAL_TIME ( 9, 32, 53.00000000000000000, #9 ) ;
#82 = DATE_AND_TIME ( #38, #98 ) ;
#83 = FACE_BOUND ( 'NONE', #110, .T. ) ;
#84 = PERSON_AND_ORGANIZATION_ROLE ( 'classification_officer' ) ;
#85 = FACE_BOUND ( 'NONE', #271, .T. ) ;
#86 =( LENGTH_UNIT ( ) NAMED_UNIT ( * ) SI_UNIT ( .MILLI., .METRE. ) );
#87 = APPROVAL_PERSON_ORGANIZATION ( #298, #11, #300 ) ;
#88 = DIRECTION ( 'NONE',  ( 3.491481338843133355E-15, -1.224646799147353207E-16, 1.000000000000000000 ) ) ;
#89 = EDGE_LOOP ( 'NONE', ( #175 ) ) ;
#90 = ADVANCED_FACE ( 'NONE', ( #278, #45 ), #21, .T. ) ;
#91 = PLANE ( 'NONE',  #125 ) ;
#92 = DATE_AND_TIME ( #285, #81 ) ;
#93 = CARTESIAN_POINT ( 'NONE',  ( -1.366475414392876754E-31, 4.792950555778339285E-33, -3.913741136722341523E-17 ) ) ;
#94 = CARTESIAN_POINT ( 'NONE',  ( 1.735266225405037467E-13, -6.086494591762345225E-15, 49.70000000000000284 ) ) ;
#95 = EDGE_CURVE ( 'NONE', #74, #74, #218, .T. ) ;
#96 = CARTESIAN_POINT ( 'NONE',  ( 8.728703347107833388E-16, 0.7834999999999991971, 0.2500000000000000000 ) ) ;
#97 = AXIS2_PLACEMENT_3D ( 'NONE', #115, #262, #105 ) ;
#98 = LOCAL_TIME ( 9, 32, 53.00000000000000000, #41 ) ;
#99 = DIRECTION ( 'NONE',  ( -3.491481338843133355E-15, 1.224646799147353207E-16, -1.000000000000000000 ) ) ;
#100 = EDGE_LOOP ( 'NONE', ( #138 ) ) ;
#101 = APPROVAL_STATUS ( 'not_yet_approved' ) ;
#102 = EDGE_LOOP ( 'NONE', ( #47 ) ) ;
#103 = PERSON_AND_ORGANIZATION_ROLE ( 'design_supplier' ) ;
#104 = CIRCLE ( 'NONE', #257, 1.500000000000001554 ) ;
#105 = DIRECTION ( 'NONE',  ( 4.275831445896958607E-31, 1.000000000000000000, 1.224646799147353207E-16 ) ) ;
#106 = PERSON_AND_ORGANIZATION ( #142, #225 ) ;
#107 = EDGE_LOOP ( 'NONE', ( #39 ) ) ;
#108 = EDGE_CURVE ( 'NONE', #288, #288, #183, .T. ) ;
#109 = VERTEX_POINT ( 'NONE', #275 ) ;
#110 = EDGE_LOOP ( 'NONE', ( #223 ) ) ;
#111 = AXIS2_PLACEMENT_3D ( 'NONE', #265, #51, #198 ) ;
#112 = EDGE_LOOP ( 'NONE', ( #253 ) ) ;
#113 = APPROVAL_ROLE ( '' ) ;
#114 = ADVANCED_FACE ( 'NONE', ( #235 ), #69, .T. ) ;
#115 = CARTESIAN_POINT ( 'NONE',  ( 0.0000000000000000000, 0.0000000000000000000, 0.0000000000000000000 ) ) ;
#116 = VERTEX_POINT ( 'NONE', #122 ) ;
#117 = ADVANCED_BREP_SHAPE_REPRESENTATION ( '973910', ( #292, #194, #204 ), #77 ) ;
#118 = ADVANCED_FACE ( 'NONE', ( #136, #83 ), #153, .T. ) ;
#119 = DIRECTION ( 'NONE',  ( -3.491481338843133355E-15, 1.224646799147353207E-16, -1.000000000000000000 ) ) ;
#120 = DIRECTION ( 'NONE',  ( 0.0000000000000000000, 1.000000000000000000, 0.0000000000000000000 ) ) ;
#121 = ADVANCED_FACE ( 'NONE', ( #22 ), #210, .F. ) ;
#122 = CARTESIAN_POINT ( 'NONE',  ( 1.745740669421566678E-13, 1.199999999999995515, 50.00000000000000000 ) ) ;
#123 = DIRECTION ( 'NONE',  ( -3.491481338843133355E-15, 1.224646799147353207E-16, -1.000000000000000000 ) ) ;
#124 = ORIENTED_EDGE ( 'NONE', *, *, #267, .T. ) ;
#125 = AXIS2_PLACEMENT_3D ( 'NONE', #93, #196, #149 ) ;
#126 = PERSON_AND_ORGANIZATION ( #142, #225 ) ;
#127 = ORIENTED_EDGE ( 'NONE', *, *, #165, .F. ) ;
#128 = ADVANCED_FACE ( 'NONE', ( #268, #294 ), #191, .T. ) ;
#129 = APPROVAL_STATUS ( 'not_yet_approved' ) ;
#130 = EDGE_LOOP ( 'NONE', ( #233 ) ) ;
#131 = DATE_TIME_ROLE ( 'creation_date' ) ;
#132 = CLOSED_SHELL ( 'NONE', ( #145, #76, #90, #114 ) ) ;
#133 = PERSON_AND_ORGANIZATION ( #142, #225 ) ;
#134 = CIRCLE ( 'NONE', #48, 1.200000000000001732 ) ;
#135 = EDGE_CURVE ( 'NONE', #31, #31, #270, .T. ) ;
#136 = FACE_OUTER_BOUND ( 'NONE', #102, .T. ) ;
#137 = PERSON_AND_ORGANIZATION ( #142, #225 ) ;
#138 = ORIENTED_EDGE ( 'NONE', *, *, #301, .F. ) ;
#139 = DIRECTION ( 'NONE',  ( -3.491481338843133355E-15, 1.224646799147353207E-16, -1.000000000000000000 ) ) ;
#140 = DIRECTION ( 'NONE',  ( -3.491481338843133355E-15, 1.224646799147353207E-16, -1.000000000000000000 ) ) ;
#141 = DIRECTION ( 'NONE',  ( -3.491481338843133355E-15, 1.224646799147353207E-16, -1.000000000000000000 ) ) ;
#142 = PERSON ( 'UNSPECIFIED', 'UNSPECIFIED', 'UNSPECIFIED', ('UNSPECIFIED'), ('UNSPECIFIED'), ('UNSPECIFIED') ) ;
#143 = DIRECTION ( 'NONE',  ( 4.275831445896958607E-31, 1.000000000000000000, 1.224646799147353207E-16 ) ) ;
#144 = APPROVAL_PERSON_ORGANIZATION ( #126, #263, #302 ) ;
#145 = ADVANCED_FACE ( 'NONE', ( #32 ), #91, .F. ) ;
#146 = CYLINDRICAL_SURFACE ( 'NONE', #216, 0.6800000000000004929 ) ;
#147 = AXIS2_PLACEMENT_3D ( 'NONE', #212, #5, #213 ) ;
#148 = DIRECTION ( 'NONE',  ( 0.0000000000000000000, 1.000000000000000000, 0.0000000000000000000 ) ) ;
#149 = DIRECTION ( 'NONE',  ( -4.275831445896958607E-31, -1.000000000000000000, -1.224646799147353207E-16 ) ) ;
#150 = EDGE_LOOP ( 'NONE', ( #127 ) ) ;
#151 = PRODUCT ( '973910', '973910', '', ( #254 ) ) ;
#152 = FACE_OUTER_BOUND ( 'NONE', #112, .T. ) ;
#153 = CONICAL_SURFACE ( 'NONE', #70, 1.200000000000001732, 0.7853981633974453924 ) ;
#154 = PERSON_AND_ORGANIZATION ( #142, #225 ) ;
#155 = DESIGN_CONTEXT ( 'detailed design', #195, 'design' ) ;
#156 = ORIENTED_EDGE ( 'NONE', *, *, #135, .F. ) ;
#157 = AXIS2_PLACEMENT_3D ( 'NONE', #239, #259, #46 ) ;
#158 = CALENDAR_DATE ( 2021, 30, 11 ) ;
#159 = AXIS2_PLACEMENT_3D ( 'NONE', #240, #88, #186 ) ;
#160 = EDGE_LOOP ( 'NONE', ( #156 ) ) ;
#161 = PLANE ( 'NONE',  #169 ) ;
#162 = ORIENTED_EDGE ( 'NONE', *, *, #291, .F. ) ;
#163 = FACE_OUTER_BOUND ( 'NONE', #208, .T. ) ;
#164 = DIRECTION ( 'NONE',  ( 0.0000000000000000000, 1.000000000000000000, 0.0000000000000000000 ) ) ;
#165 = EDGE_CURVE ( 'NONE', #217, #217, #295, .T. ) ;
#166 = PRODUCT_RELATED_PRODUCT_CATEGORY ( 'detail', '', ( #151 ) ) ;
#167 = DIRECTION ( 'NONE',  ( -3.491481338843133355E-15, 1.224646799147353207E-16, -1.000000000000000000 ) ) ;
#168 = CARTESIAN_POINT ( 'NONE',  ( 2.506627765991136237E-14, -8.792066668447526579E-16, 7.179267258583377220 ) ) ;
#169 = AXIS2_PLACEMENT_3D ( 'NONE', #62, #206, #182 ) ;
#170 = CIRCLE ( 'NONE', #111, 0.7103844939755815657 ) ;
#171 = FACE_OUTER_BOUND ( 'NONE', #65, .T. ) ;
#172 = ORIENTED_EDGE ( 'NONE', *, *, #301, .T. ) ;
#173 = DIRECTION ( 'NONE',  ( 3.491481338843133355E-15, -1.224646799147353207E-16, 1.000000000000000000 ) ) ;
#174 = CARTESIAN_POINT ( 'NONE',  ( 5.358479882634335789E-14, 0.7103844939755796783, 15.34729635533384595 ) ) ;
#175 = ORIENTED_EDGE ( 'NONE', *, *, #135, .T. ) ;
#176 = CONICAL_SURFACE ( 'NONE', #75, 0.7834999999999991971, 0.5235987755982924874 ) ;
#177 = LOCAL_TIME ( 9, 32, 53.00000000000000000, #181 ) ;
#178 = CARTESIAN_POINT ( 'NONE',  ( 1.735266225405037467E-13, 1.499999999999995559, 49.70000000000000284 ) ) ;
#179 = SECURITY_CLASSIFICATION_LEVEL ( 'unclassified' ) ;
#180 = DIRECTION ( 'NONE',  ( -3.491481338843133355E-15, 1.224646799147353207E-16, -1.000000000000000000 ) ) ;
#181 = COORDINATED_UNIVERSAL_TIME_OFFSET ( 1, 0, .AHEAD. ) ;
#182 = DIRECTION ( 'NONE',  ( 4.275831445896958607E-31, 1.000000000000000000, 1.224646799147353207E-16 ) ) ;
#183 = CIRCLE ( 'NONE', #35, 0.7834999999999999742 ) ;
#184 = DIRECTION ( 'NONE',  ( 0.0000000000000000000, 0.0000000000000000000, 1.000000000000000000 ) ) ;
#185 = CC_DESIGN_APPROVAL ( #263, ( #282 ) ) ;
#186 = DIRECTION ( 'NONE',  ( -4.275831445896958607E-31, -1.000000000000000000, -1.224646799147353207E-16 ) ) ;
#187 = APPROVAL ( #189, 'UNSPECIFIED' ) ;
#188 = FACE_OUTER_BOUND ( 'NONE', #33, .T. ) ;
#189 = APPROVAL_STATUS ( 'not_yet_approved' ) ;
#190 = CARTESIAN_POINT ( 'NONE',  ( -2.732950828785753509E-31, 9.585901111556678570E-33, -7.827482273444683046E-17 ) ) ;
#191 = CONICAL_SURFACE ( 'NONE', #209, 1.499999999999996447, 0.1745329251994258979 ) ;
#192 = FACE_OUTER_BOUND ( 'NONE', #100, .T. ) ;
#193 = ADVANCED_FACE ( 'NONE', ( #53, #192 ), #146, .T. ) ;
#194 = MANIFOLD_SOLID_BREP ( 'Corps-Déplacer/Copier1[2]', #132 ) ;
#195 = APPLICATION_CONTEXT ( 'configuration controlled 3d designs of mechanical parts and assemblies' ) ;
#196 = DIRECTION ( 'NONE',  ( 3.491481338843133355E-15, -1.224646799147353207E-16, 1.000000000000000000 ) ) ;
#197 = ADVANCED_FACE ( 'NONE', ( #171, #58 ), #272, .T. ) ;
#198 = DIRECTION ( 'NONE',  ( 0.0000000000000000000, 1.000000000000000000, 0.0000000000000000000 ) ) ;
#199 = CARTESIAN_POINT ( 'NONE',  ( 2.444036937190193349E-14, 0.7834999999999991971, 7.000000000000000000 ) ) ;
#200 = CC_DESIGN_PERSON_AND_ORGANIZATION_ASSIGNMENT ( #228, #34, ( #61 ) ) ;
#201 = CARTESIAN_POINT ( 'NONE',  ( 2.444036937190193349E-14, -8.572527594031473190E-16, 7.000000000000000000 ) ) ;
#202 = ORIENTED_EDGE ( 'NONE', *, *, #291, .T. ) ;
#203 =( NAMED_UNIT ( * ) PLANE_ANGLE_UNIT ( ) SI_UNIT ( $, .RADIAN. ) );
#204 = AXIS2_PLACEMENT_3D ( 'NONE', #277, #184, #283 ) ;
#205 = APPLICATION_PROTOCOL_DEFINITION ( 'international standard', 'config_control_design', 1994, #289 ) ;
#206 = DIRECTION ( 'NONE',  ( -3.491481338843133355E-15, 1.224646799147353207E-16, -1.000000000000000000 ) ) ;
#207 = ORIENTED_EDGE ( 'NONE', *, *, #66, .F. ) ;
#208 = EDGE_LOOP ( 'NONE', ( #67 ) ) ;
#209 = AXIS2_PLACEMENT_3D ( 'NONE', #71, #173, #10 ) ;
#210 = PLANE ( 'NONE',  #147 ) ;
#211 = SHAPE_DEFINITION_REPRESENTATION ( #237, #117 ) ;
#212 = CARTESIAN_POINT ( 'NONE',  ( 2.444036937190193349E-14, 5.875308948577814780E-33, 7.000000000000000000 ) ) ;
#213 = DIRECTION ( 'NONE',  ( -4.275831445896958607E-31, -1.000000000000000000, -1.224646799147353207E-16 ) ) ;
#214 = EDGE_CURVE ( 'NONE', #116, #116, #134, .T. ) ;
#215 = CIRCLE ( 'NONE', #242, 0.6391624327025948737 ) ;
#216 = AXIS2_PLACEMENT_3D ( 'NONE', #290, #78, #143 ) ;
#217 = VERTEX_POINT ( 'NONE', #28 ) ;
#218 = CIRCLE ( 'NONE', #15, 0.7834999999999991971 ) ;
#219 = AXIS2_PLACEMENT_3D ( 'NONE', #12, #123, #269 ) ;
#220 = FACE_BOUND ( 'NONE', #60, .T. ) ;
#221 = DIRECTION ( 'NONE',  ( 0.0000000000000000000, 1.000000000000000000, 0.0000000000000000000 ) ) ;
#222 = CC_DESIGN_PERSON_AND_ORGANIZATION_ASSIGNMENT ( #154, #103, ( #282 ) ) ;
#223 = ORIENTED_EDGE ( 'NONE', *, *, #214, .T. ) ;
#224 = DIRECTION ( 'NONE',  ( 0.0000000000000000000, 1.000000000000000000, 0.0000000000000000000 ) ) ;
#225 = ORGANIZATION ( 'UNSPECIFIED', 'UNSPECIFIED', '' ) ;
#226 = DATE_AND_TIME ( #40, #64 ) ;
#227 = EDGE_LOOP ( 'NONE', ( #68 ) ) ;
#228 = PERSON_AND_ORGANIZATION ( #142, #225 ) ;
#229 = ORIENTED_EDGE ( 'NONE', *, *, #95, .F. ) ;
#230 = DATE_AND_TIME ( #279, #16 ) ;
#231 = AXIS2_PLACEMENT_3D ( 'NONE', #168, #167, #224 ) ;
#232 = APPROVAL_DATE_TIME ( #226, #11 ) ;
#233 = ORIENTED_EDGE ( 'NONE', *, *, #108, .T. ) ;
#234 = VERTEX_POINT ( 'NONE', #174 ) ;
#235 = FACE_OUTER_BOUND ( 'NONE', #160, .T. ) ;
#236 = ADVANCED_FACE ( 'NONE', ( #220, #152 ), #27, .T. ) ;
#237 = PRODUCT_DEFINITION_SHAPE ( 'NONE', 'NONE',  #61 ) ;
#238 = DIRECTION ( 'NONE',  ( 0.0000000000000000000, 1.000000000000000000, 0.0000000000000000000 ) ) ;
#239 = CARTESIAN_POINT ( 'NONE',  ( 5.237222008264700033E-14, -1.734723475976807094E-15, 15.00000000000000000 ) ) ;
#240 = CARTESIAN_POINT ( 'NONE',  ( 2.444036937190193349E-14, 5.875308948577814780E-33, 7.000000000000000000 ) ) ;
#241 = CARTESIAN_POINT ( 'NONE',  ( 0.0000000000000000000, 0.0000000000000000000, 0.0000000000000000000 ) ) ;
#242 = AXIS2_PLACEMENT_3D ( 'NONE', #190, #180, #256 ) ;
#243 = CC_DESIGN_APPROVAL ( #11, ( #61 ) ) ;
#244 = CC_DESIGN_PERSON_AND_ORGANIZATION_ASSIGNMENT ( #133, #84, ( #52 ) ) ;
#245 = DIRECTION ( 'NONE',  ( -3.491481338843133355E-15, 1.224646799147353207E-16, -1.000000000000000000 ) ) ;
#246 = CIRCLE ( 'NONE', #219, 1.499999999999996447 ) ;
#247 = DIRECTION ( 'NONE',  ( -3.491481338843133355E-15, 1.224646799147353207E-16, -1.000000000000000000 ) ) ;
#248 = EDGE_CURVE ( 'NONE', #13, #13, #246, .T. ) ;
#249 = DIRECTION ( 'NONE',  ( -3.491481338843133355E-15, 1.224646799147353207E-16, -1.000000000000000000 ) ) ;
#250 = COORDINATED_UNIVERSAL_TIME_OFFSET ( 1, 0, .AHEAD. ) ;
#251 = EDGE_LOOP ( 'NONE', ( #124 ) ) ;
#252 = PERSON_AND_ORGANIZATION ( #142, #225 ) ;
#253 = ORIENTED_EDGE ( 'NONE', *, *, #108, .F. ) ;
#254 = MECHANICAL_CONTEXT ( 'NONE', #289, 'mechanical' ) ;
#255 = UNCERTAINTY_MEASURE_WITH_UNIT (LENGTH_MEASURE( 1.000000000000000082E-05 ), #86, 'distance_accuracy_value', 'NONE');
#256 = DIRECTION ( 'NONE',  ( 4.275831445896958607E-31, 1.000000000000000000, 1.224646799147353207E-16 ) ) ;
#257 = AXIS2_PLACEMENT_3D ( 'NONE', #94, #247, #120 ) ;
#258 = DATE_AND_TIME ( #158, #177 ) ;
#259 = DIRECTION ( 'NONE',  ( -3.491481338843133355E-15, 1.224646799147353207E-16, -1.000000000000000000 ) ) ;
#260 = CARTESIAN_POINT ( 'NONE',  ( 1.745740669421566678E-13, -6.123233995736766085E-15, 50.00000000000000000 ) ) ;
#261 = APPROVAL_DATE_TIME ( #92, #187 ) ;
#262 = DIRECTION ( 'NONE',  ( -3.491481338843133355E-15, 1.224646799147353207E-16, -1.000000000000000000 ) ) ;
#263 = APPROVAL ( #101, 'UNSPECIFIED' ) ;
#264 = EDGE_LOOP ( 'NONE', ( #37 ) ) ;
#265 = CARTESIAN_POINT ( 'NONE',  ( 5.358479882634335789E-14, -1.879501735712543302E-15, 15.34729635533384595 ) ) ;
#266 = APPROVAL_PERSON_ORGANIZATION ( #137, #187, #113 ) ;
#267 = EDGE_CURVE ( 'NONE', #14, #14, #104, .T. ) ;
#268 = FACE_BOUND ( 'NONE', #297, .T. ) ;
#269 = DIRECTION ( 'NONE',  ( 0.0000000000000000000, 1.000000000000000000, 0.0000000000000000000 ) ) ;
#270 = CIRCLE ( 'NONE', #29, 0.7834999999999999742 ) ;
#271 = EDGE_LOOP ( 'NONE', ( #207 ) ) ;
#272 = CYLINDRICAL_SURFACE ( 'NONE', #54, 1.499999999999998890 ) ;
#273 = EDGE_LOOP ( 'NONE', ( #229 ) ) ;
#274 = CARTESIAN_POINT ( 'NONE',  ( 5.237222008264700033E-14, -1.836970198721029589E-15, 15.00000000000000000 ) ) ;
#275 = CARTESIAN_POINT ( 'NONE',  ( 2.506627765991136237E-14, 0.6800000000000000488, 7.179267258583377220 ) ) ;
#276 = ORIENTED_EDGE ( 'NONE', *, *, #248, .F. ) ;
#277 = CARTESIAN_POINT ( 'NONE',  ( 0.0000000000000000000, 0.0000000000000000000, 0.0000000000000000000 ) ) ;
#278 = FACE_OUTER_BOUND ( 'NONE', #273, .T. ) ;
#279 = CALENDAR_DATE ( 2021, 30, 11 ) ;
#280 = CC_DESIGN_PERSON_AND_ORGANIZATION_ASSIGNMENT ( #252, #18, ( #282 ) ) ;
#281 = CARTESIAN_POINT ( 'NONE',  ( 2.444036937190193349E-14, -8.572527594031473190E-16, 7.000000000000000000 ) ) ;
#282 = PRODUCT_DEFINITION_FORMATION_WITH_SPECIFIED_SOURCE ( 'ANY', '', #151, .NOT_KNOWN. ) ;
#283 = DIRECTION ( 'NONE',  ( 1.000000000000000000, 0.0000000000000000000, 0.0000000000000000000 ) ) ;
#284 = DIRECTION ( 'NONE',  ( 0.0000000000000000000, 1.000000000000000000, 0.0000000000000000000 ) ) ;
#285 = CALENDAR_DATE ( 2021, 30, 11 ) ;
#286 = FACE_OUTER_BOUND ( 'NONE', #150, .T. ) ;
#287 = DIRECTION ( 'NONE',  ( 3.491481338843133355E-15, -1.224646799147353207E-16, 1.000000000000000000 ) ) ;
#288 = VERTEX_POINT ( 'NONE', #199 ) ;
#289 = APPLICATION_CONTEXT ( 'configuration controlled 3d designs of mechanical parts and assemblies' ) ;
#290 = CARTESIAN_POINT ( 'NONE',  ( 0.0000000000000000000, 0.0000000000000000000, 0.0000000000000000000 ) ) ;
#291 = EDGE_CURVE ( 'NONE', #234, #234, #170, .T. ) ;
#292 = MANIFOLD_SOLID_BREP ( 'Corps-Déplacer/Copier1[1]', #7 ) ;
#293 = CARTESIAN_POINT ( 'NONE',  ( 0.0000000000000000000, 0.6391624327025948737, 0.0000000000000000000 ) ) ;
#294 = FACE_OUTER_BOUND ( 'NONE', #107, .T. ) ;
#295 = CIRCLE ( 'NONE', #23, 0.6800000000000001599 ) ;
#296 = DIRECTION ( 'NONE',  ( 4.275831445896958607E-31, 1.000000000000000000, 1.224646799147353454E-16 ) ) ;
#297 = EDGE_LOOP ( 'NONE', ( #162 ) ) ;
#298 = PERSON_AND_ORGANIZATION ( #142, #225 ) ;
#299 = CC_DESIGN_PERSON_AND_ORGANIZATION_ASSIGNMENT ( #106, #63, ( #151 ) ) ;
#300 = APPROVAL_ROLE ( '' ) ;
#301 = EDGE_CURVE ( 'NONE', #109, #109, #2, .T. ) ;
#302 = APPROVAL_ROLE ( '' ) ;
#303 = ORIENTED_EDGE ( 'NONE', *, *, #165, .T. ) ;
ENDSEC;
END-ISO-10303-21;
