ISO-10303-21;
HEADER;
FILE_DESCRIPTION (( 'STEP AP203' ),
    '1' );
FILE_NAME ('973645.step',
    '2021-12-17T10:35:11',
    ( '' ),
    ( '' ),
    'SwSTEP 2.0',
    'SolidWorks 2019',
    '' );
FILE_SCHEMA (( 'CONFIG_CONTROL_DESIGN' ));
ENDSEC;

DATA;
#1 = VERTEX_POINT ( 'NONE', #96 ) ;
#2 = LOCAL_TIME ( 11, 35, 11.00000000000000000, #228 ) ;
#3 = DIRECTION ( 'NONE',  ( 0.0000000000000000000, 1.000000000000000000, 0.0000000000000000000 ) ) ;
#4 = DIRECTION ( 'NONE',  ( 4.275831445896958607E-31, 1.000000000000000000, 1.224646799147353207E-16 ) ) ;
#5 = CYLINDRICAL_SURFACE ( 'NONE', #109, 0.7130000000000000782 ) ;
#6 = ORIENTED_EDGE ( 'NONE', *, *, #64, .F. ) ;
#7 = PLANE ( 'NONE',  #165 ) ;
#8 = AXIS2_PLACEMENT_3D ( 'NONE', #150, #69, #149 ) ;
#9 = EDGE_LOOP ( 'NONE', ( #6 ) ) ;
#10 = ADVANCED_FACE ( 'NONE', ( #202, #158 ), #63, .T. ) ;
#11 = APPROVAL_STATUS ( 'not_yet_approved' ) ;
#12 = DATE_TIME_ROLE ( 'creation_date' ) ;
#13 = EDGE_LOOP ( 'NONE', ( #265 ) ) ;
#14 = CLOSED_SHELL ( 'NONE', ( #229, #260, #117, #157, #93, #20, #214 ) ) ;
#15 = PERSON_AND_ORGANIZATION ( #91, #190 ) ;
#16 = EDGE_CURVE ( 'NONE', #73, #73, #289, .T. ) ;
#17 = CARTESIAN_POINT ( 'NONE',  ( 1.047444401652940007E-13, 0.5999999999999949818, 30.00000000000000000 ) ) ;
#18 = FACE_OUTER_BOUND ( 'NONE', #81, .T. ) ;
#19 = AXIS2_PLACEMENT_3D ( 'NONE', #99, #192, #287 ) ;
#20 = ADVANCED_FACE ( 'NONE', ( #38, #128 ), #210, .T. ) ;
#21 = CC_DESIGN_PERSON_AND_ORGANIZATION_ASSIGNMENT ( #15, #274, ( #236 ) ) ;
#22 = PRODUCT ( '973645', '973645', '', ( #257 ) ) ;
#23 = AXIS2_PLACEMENT_3D ( 'NONE', #200, #136, #60 ) ;
#24 = APPLICATION_CONTEXT ( 'configuration controlled 3d designs of mechanical parts and assemblies' ) ;
#25 = CARTESIAN_POINT ( 'NONE',  ( 1.955229549752154679E-14, -6.858022075225177566E-16, 5.599999999999999645 ) ) ;
#26 = EDGE_LOOP ( 'NONE', ( #112 ) ) ;
#27 = PLANE ( 'NONE',  #296 ) ;
#28 = LOCAL_TIME ( 11, 35, 11.00000000000000000, #235 ) ;
#29 = DIRECTION ( 'NONE',  ( 4.512788180421853569E-31, 1.000000000000000000, 1.270236947984364900E-16 ) ) ;
#30 = CYLINDRICAL_SURFACE ( 'NONE', #140, 0.7129999999999996341 ) ;
#31 = ADVANCED_FACE ( 'NONE', ( #225, #134 ), #88, .T. ) ;
#32 = PLANE ( 'NONE',  #19 ) ;
#33 = APPROVAL ( #280, 'UNSPECIFIED' ) ;
#34 = DIRECTION ( 'NONE',  ( 0.0000000000000000000, 1.000000000000000000, 0.0000000000000000000 ) ) ;
#35 = APPLICATION_PROTOCOL_DEFINITION ( 'international standard', 'config_control_design', 1994, #130 ) ;
#36 = ORIENTED_EDGE ( 'NONE', *, *, #168, .T. ) ;
#37 = APPLICATION_PROTOCOL_DEFINITION ( 'international standard', 'config_control_design', 1994, #24 ) ;
#38 = FACE_OUTER_BOUND ( 'NONE', #9, .T. ) ;
#39 = DIRECTION ( 'NONE',  ( -3.491481338843133355E-15, 1.224646799147353207E-16, -1.000000000000000000 ) ) ;
#40 = CALENDAR_DATE ( 2021, 17, 12 ) ;
#41 = DIRECTION ( 'NONE',  ( 0.0000000000000000000, 1.000000000000000000, 0.0000000000000000000 ) ) ;
#42 = ADVANCED_FACE ( 'NONE', ( #174 ), #205, .T. ) ;
#43 = DIRECTION ( 'NONE',  ( -3.491481338843133355E-15, 1.224646799147353207E-16, -1.000000000000000000 ) ) ;
#44 = AXIS2_PLACEMENT_3D ( 'NONE', #171, #53, #262 ) ;
#45 = COORDINATED_UNIVERSAL_TIME_OFFSET ( 1, 0, .AHEAD. ) ;
#46 = SECURITY_CLASSIFICATION_LEVEL ( 'unclassified' ) ;
#47 = AXIS2_PLACEMENT_3D ( 'NONE', #271, #299, #250 ) ;
#48 = CIRCLE ( 'NONE', #303, 0.7129999999999994120 ) ;
#49 = CARTESIAN_POINT ( 'NONE',  ( 2.094888803305879619E-15, -7.347880794884117764E-17, 0.5999999999999999778 ) ) ;
#50 = ORIENTED_EDGE ( 'NONE', *, *, #16, .T. ) ;
#51 = FACE_OUTER_BOUND ( 'NONE', #13, .T. ) ;
#52 = ORIENTED_EDGE ( 'NONE', *, *, #196, .F. ) ;
#53 = DIRECTION ( 'NONE',  ( 3.491481338843133355E-15, -1.224646799147353207E-16, 1.000000000000000000 ) ) ;
#54 = APPROVAL ( #11, 'UNSPECIFIED' ) ;
#55 = ORIENTED_EDGE ( 'NONE', *, *, #16, .F. ) ;
#56 = CARTESIAN_POINT ( 'NONE',  ( 1.047444401652940007E-13, 4.499279347985507822E-33, 30.00000000000000000 ) ) ;
#57 = DIRECTION ( 'NONE',  ( 4.275831445896959482E-31, 1.000000000000000000, 1.224646799147353207E-16 ) ) ;
#58 = CARTESIAN_POINT ( 'NONE',  ( 2.234548056859605347E-14, -7.837739514543060920E-16, 6.400000000000000355 ) ) ;
#59 = PERSON_AND_ORGANIZATION ( #91, #190 ) ;
#60 = DIRECTION ( 'NONE',  ( -5.402328034746809311E-31, -1.000000000000000000, -1.520620157763682149E-16 ) ) ;
#61 = DIRECTION ( 'NONE',  ( 0.0000000000000000000, 1.000000000000000000, 0.0000000000000000000 ) ) ;
#62 = PERSON_AND_ORGANIZATION ( #91, #190 ) ;
#63 = CONICAL_SURFACE ( 'NONE', #23, 0.7129999999999994120, 0.1919862177193692732 ) ;
#64 = EDGE_CURVE ( 'NONE', #213, #213, #125, .T. ) ;
#65 = CARTESIAN_POINT ( 'NONE',  ( -1.068957861474239433E-31, 3.749399456654644020E-33, -3.061616997868383018E-17 ) ) ;
#66 = PERSON_AND_ORGANIZATION_ROLE ( 'classification_officer' ) ;
#67 = EDGE_CURVE ( 'NONE', #1, #1, #164, .T. ) ;
#68 = AXIS2_PLACEMENT_3D ( 'NONE', #78, #230, #198 ) ;
#69 = DIRECTION ( 'NONE',  ( -3.491481338843133355E-15, 1.224646799147353207E-16, -1.000000000000000000 ) ) ;
#70 = ORIENTED_EDGE ( 'NONE', *, *, #67, .F. ) ;
#71 = FACE_OUTER_BOUND ( 'NONE', #227, .T. ) ;
#72 = CIRCLE ( 'NONE', #253, 0.6401574372832188331 ) ;
#73 = VERTEX_POINT ( 'NONE', #247 ) ;
#74 = CLOSED_SHELL ( 'NONE', ( #129, #31, #10, #184, #42 ) ) ;
#75 = EDGE_LOOP ( 'NONE', ( #36 ) ) ;
#76 = FACE_BOUND ( 'NONE', #220, .T. ) ;
#77 = ORIENTED_EDGE ( 'NONE', *, *, #67, .T. ) ;
#78 = CARTESIAN_POINT ( 'NONE',  ( 7.864823627184872362E-16, -2.758608781246350034E-17, 0.2252575014418035371 ) ) ;
#79 = VERTEX_POINT ( 'NONE', #199 ) ;
#80 = LOCAL_TIME ( 11, 35, 11.00000000000000000, #85 ) ;
#81 = EDGE_LOOP ( 'NONE', ( #55 ) ) ;
#82 = UNCERTAINTY_MEASURE_WITH_UNIT (LENGTH_MEASURE( 1.000000000000000082E-05 ), #83, 'distance_accuracy_value', 'NONE');
#83 =( LENGTH_UNIT ( ) NAMED_UNIT ( * ) SI_UNIT ( .MILLI., .METRE. ) );
#84 = EDGE_LOOP ( 'NONE', ( #267 ) ) ;
#85 = COORDINATED_UNIVERSAL_TIME_OFFSET ( 1, 0, .AHEAD. ) ;
#86 = DIRECTION ( 'NONE',  ( -3.491481338843133355E-15, 1.224646799147353207E-16, -1.000000000000000000 ) ) ;
#87 = VERTEX_POINT ( 'NONE', #105 ) ;
#88 = CONICAL_SURFACE ( 'NONE', #68, 0.6401574372832188331, 1.047197551196592746 ) ;
#89 = CIRCLE ( 'NONE', #8, 0.7129999999999999671 ) ;
#90 = FACE_OUTER_BOUND ( 'NONE', #84, .T. ) ;
#91 = PERSON ( 'UNSPECIFIED', 'UNSPECIFIED', 'UNSPECIFIED', ('UNSPECIFIED'), ('UNSPECIFIED'), ('UNSPECIFIED') ) ;
#92 = CC_DESIGN_PERSON_AND_ORGANIZATION_ASSIGNMENT ( #114, #66, ( #162 ) ) ;
#93 = ADVANCED_FACE ( 'NONE', ( #302, #90 ), #160, .T. ) ;
#94 = LOCAL_TIME ( 11, 35, 11.00000000000000000, #45 ) ;
#95 = CALENDAR_DATE ( 2021, 17, 12 ) ;
#96 = CARTESIAN_POINT ( 'NONE',  ( 2.328726707989342250E-14, 0.7499999999999963363, 6.669738377467433921 ) ) ;
#97 = EDGE_LOOP ( 'NONE', ( #107 ) ) ;
#98 = CARTESIAN_POINT ( 'NONE',  ( 0.0000000000000000000, 0.0000000000000000000, 0.0000000000000000000 ) ) ;
#99 = CARTESIAN_POINT ( 'NONE',  ( 1.955229549752154679E-14, 5.346643625189512546E-33, 5.599999999999999645 ) ) ;
#100 = EDGE_LOOP ( 'NONE', ( #193 ) ) ;
#101 = CARTESIAN_POINT ( 'NONE',  ( 0.0000000000000000000, 0.0000000000000000000, 0.0000000000000000000 ) ) ;
#102 = CARTESIAN_POINT ( 'NONE',  ( 2.234548056859605347E-14, -8.673617379884035472E-16, 6.400000000000000355 ) ) ;
#103 = CIRCLE ( 'NONE', #186, 0.7470741737109297675 ) ;
#104 = EDGE_LOOP ( 'NONE', ( #70 ) ) ;
#105 = CARTESIAN_POINT ( 'NONE',  ( 1.955229549752154679E-14, 0.7129999999999993010, 5.599999999999999645 ) ) ;
#106 = EDGE_CURVE ( 'NONE', #189, #189, #283, .T. ) ;
#107 = ORIENTED_EDGE ( 'NONE', *, *, #148, .T. ) ;
#108 = APPROVAL_DATE_TIME ( #251, #295 ) ;
#109 = AXIS2_PLACEMENT_3D ( 'NONE', #101, #288, #57 ) ;
#110 = CARTESIAN_POINT ( 'NONE',  ( 1.047444401652940007E-13, -3.673940397442059178E-15, 30.00000000000000000 ) ) ;
#111 = DIRECTION ( 'NONE',  ( 1.000000000000000000, 0.0000000000000000000, 0.0000000000000000000 ) ) ;
#112 = ORIENTED_EDGE ( 'NONE', *, *, #238, .F. ) ;
#113 = FACE_OUTER_BOUND ( 'NONE', #100, .T. ) ;
#114 = PERSON_AND_ORGANIZATION ( #91, #190 ) ;
#115 = CC_DESIGN_PERSON_AND_ORGANIZATION_ASSIGNMENT ( #231, #224, ( #22 ) ) ;
#116 = CALENDAR_DATE ( 2021, 17, 12 ) ;
#117 = ADVANCED_FACE ( 'NONE', ( #18, #113 ), #182, .F. ) ;
#118 = FACE_OUTER_BOUND ( 'NONE', #293, .T. ) ;
#119 = CC_DESIGN_PERSON_AND_ORGANIZATION_ASSIGNMENT ( #62, #187, ( #236 ) ) ;
#120 = CC_DESIGN_APPROVAL ( #295, ( #236 ) ) ;
#121 = DIRECTION ( 'NONE',  ( -3.491481338843133355E-15, 1.224646799147353207E-16, -1.000000000000000000 ) ) ;
#122 = FACE_OUTER_BOUND ( 'NONE', #239, .T. ) ;
#123 = EDGE_LOOP ( 'NONE', ( #146 ) ) ;
#124 = DIRECTION ( 'NONE',  ( 4.275831445896959482E-31, 1.000000000000000000, 1.224646799147353207E-16 ) ) ;
#125 = CIRCLE ( 'NONE', #301, 0.7499999999999984457 ) ;
#126 = VERTEX_POINT ( 'NONE', #294 ) ;
#127 = AXIS2_PLACEMENT_3D ( 'NONE', #102, #167, #240 ) ;
#128 = FACE_BOUND ( 'NONE', #75, .T. ) ;
#129 = ADVANCED_FACE ( 'NONE', ( #285 ), #7, .F. ) ;
#130 = APPLICATION_CONTEXT ( 'configuration controlled 3d designs of mechanical parts and assemblies' ) ;
#131 = CALENDAR_DATE ( 2021, 17, 12 ) ;
#132 =( NAMED_UNIT ( * ) PLANE_ANGLE_UNIT ( ) SI_UNIT ( $, .RADIAN. ) );
#133 = MANIFOLD_SOLID_BREP ( 'Corps-Déplacer/Copier1[2]', #74 ) ;
#134 = FACE_OUTER_BOUND ( 'NONE', #176, .T. ) ;
#135 = APPROVAL_PERSON_ORGANIZATION ( #142, #33, #278 ) ;
#136 = DIRECTION ( 'NONE',  ( 3.491481338843133355E-15, -1.224646799147353207E-16, 1.000000000000000000 ) ) ;
#137 = VERTEX_POINT ( 'NONE', #17 ) ;
#138 = EDGE_LOOP ( 'NONE', ( #206 ) ) ;
#139 = SHAPE_DEFINITION_REPRESENTATION ( #154, #178 ) ;
#140 = AXIS2_PLACEMENT_3D ( 'NONE', #98, #219, #124 ) ;
#141 = EDGE_CURVE ( 'NONE', #79, #79, #89, .T. ) ;
#142 = PERSON_AND_ORGANIZATION ( #91, #190 ) ;
#143 = AXIS2_PLACEMENT_3D ( 'NONE', #65, #43, #234 ) ;
#144 = PRODUCT_DEFINITION ( 'UNKNOWN', '', #236, #255 ) ;
#145 = DIRECTION ( 'NONE',  ( -3.491481338843133355E-15, 1.224646799147353207E-16, -1.000000000000000000 ) ) ;
#146 = ORIENTED_EDGE ( 'NONE', *, *, #196, .T. ) ;
#147 = FACE_OUTER_BOUND ( 'NONE', #188, .T. ) ;
#148 = EDGE_CURVE ( 'NONE', #126, #126, #48, .T. ) ;
#149 = DIRECTION ( 'NONE',  ( 0.0000000000000000000, 1.000000000000000000, 0.0000000000000000000 ) ) ;
#150 = CARTESIAN_POINT ( 'NONE',  ( 1.955229549752154679E-14, -6.858022075225177566E-16, 5.599999999999999645 ) ) ;
#151 = CARTESIAN_POINT ( 'NONE',  ( 7.864823627184875320E-16, 0.6401574372832188331, 0.2252575014418036203 ) ) ;
#152 = ORIENTED_EDGE ( 'NONE', *, *, #106, .F. ) ;
#153 = APPROVAL_ROLE ( '' ) ;
#154 = PRODUCT_DEFINITION_SHAPE ( 'NONE', 'NONE',  #144 ) ;
#155 = EDGE_LOOP ( 'NONE', ( #281 ) ) ;
#156 = AXIS2_PLACEMENT_3D ( 'NONE', #266, #145, #197 ) ;
#157 = ADVANCED_FACE ( 'NONE', ( #76, #118 ), #223, .T. ) ;
#158 = FACE_OUTER_BOUND ( 'NONE', #97, .T. ) ;
#159 = CARTESIAN_POINT ( 'NONE',  ( 2.324914243470868245E-14, 0.7470741737109288794, 6.658819045102514877 ) ) ;
#160 = CYLINDRICAL_SURFACE ( 'NONE', #275, 0.7499999999999978906 ) ;
#161 = EDGE_CURVE ( 'NONE', #233, #233, #103, .T. ) ;
#162 = SECURITY_CLASSIFICATION ( '', '', #46 ) ;
#163 = DATE_AND_TIME ( #95, #28 ) ;
#164 = CIRCLE ( 'NONE', #248, 0.7499999999999972244 ) ;
#165 = AXIS2_PLACEMENT_3D ( 'NONE', #242, #261, #246 ) ;
#166 = DIRECTION ( 'NONE',  ( 5.402328034746809311E-31, 1.000000000000000000, 1.520620157763682149E-16 ) ) ;
#167 = DIRECTION ( 'NONE',  ( -3.491481338843133355E-15, 1.224646799147353207E-16, -1.000000000000000000 ) ) ;
#168 = EDGE_CURVE ( 'NONE', #137, #137, #212, .T. ) ;
#169 = CARTESIAN_POINT ( 'NONE',  ( 7.864823627184872362E-16, -2.758608781246350034E-17, 0.2252575014418035371 ) ) ;
#170 = CARTESIAN_POINT ( 'NONE',  ( 1.042207179644675275E-13, 0.7499999999999947820, 29.84999999999999787 ) ) ;
#171 = CARTESIAN_POINT ( 'NONE',  ( 2.328726707989342250E-14, -8.168073755115753438E-16, 6.669738377467433921 ) ) ;
#172 = COORDINATED_UNIVERSAL_TIME_OFFSET ( 1, 0, .AHEAD. ) ;
#173 = CC_DESIGN_PERSON_AND_ORGANIZATION_ASSIGNMENT ( #59, #249, ( #144 ) ) ;
#174 = FACE_OUTER_BOUND ( 'NONE', #290, .T. ) ;
#175 = CIRCLE ( 'NONE', #259, 0.7129999999999999671 ) ;
#176 = EDGE_LOOP ( 'NONE', ( #297 ) ) ;
#177 = CARTESIAN_POINT ( 'NONE',  ( 1.042207179644675275E-13, -3.655570695454848748E-15, 29.84999999999999787 ) ) ;
#178 = ADVANCED_BREP_SHAPE_REPRESENTATION ( '973645', ( #237, #133, #232 ), #216 ) ;
#179 = DIRECTION ( 'NONE',  ( -3.491481338843133355E-15, 1.224646799147353207E-16, -1.000000000000000000 ) ) ;
#180 =( NAMED_UNIT ( * ) SI_UNIT ( $, .STERADIAN. ) SOLID_ANGLE_UNIT ( ) );
#181 = AXIS2_PLACEMENT_3D ( 'NONE', #110, #179, #41 ) ;
#182 = TOROIDAL_SURFACE ( 'NONE', #127, 1.713000000000000300, 1.000000000000000222 ) ;
#183 = DIRECTION ( 'NONE',  ( 4.275831445896958607E-31, 1.000000000000000000, 1.224646799147353207E-16 ) ) ;
#184 = ADVANCED_FACE ( 'NONE', ( #51, #194 ), #30, .T. ) ;
#185 = CC_DESIGN_DATE_AND_TIME_ASSIGNMENT ( #163, #279, ( #162 ) ) ;
#186 = AXIS2_PLACEMENT_3D ( 'NONE', #218, #245, #221 ) ;
#187 = PERSON_AND_ORGANIZATION_ROLE ( 'design_supplier' ) ;
#188 = EDGE_LOOP ( 'NONE', ( #241 ) ) ;
#189 = VERTEX_POINT ( 'NONE', #282 ) ;
#190 = ORGANIZATION ( 'UNSPECIFIED', 'UNSPECIFIED', '' ) ;
#191 = ORIENTED_EDGE ( 'NONE', *, *, #161, .F. ) ;
#192 = DIRECTION ( 'NONE',  ( 3.491481338843133355E-15, -1.224646799147353207E-16, 1.000000000000000000 ) ) ;
#193 = ORIENTED_EDGE ( 'NONE', *, *, #161, .T. ) ;
#194 = FACE_OUTER_BOUND ( 'NONE', #123, .T. ) ;
#195 = AXIS2_PLACEMENT_3D ( 'NONE', #58, #86, #34 ) ;
#196 = EDGE_CURVE ( 'NONE', #87, #87, #175, .T. ) ;
#197 = DIRECTION ( 'NONE',  ( 0.0000000000000000000, 1.000000000000000000, 0.0000000000000000000 ) ) ;
#198 = DIRECTION ( 'NONE',  ( -4.512788180421853569E-31, -1.000000000000000000, -1.270236947984364900E-16 ) ) ;
#199 = CARTESIAN_POINT ( 'NONE',  ( 1.955229549752154679E-14, 0.7129999999999993010, 5.599999999999999645 ) ) ;
#200 = CARTESIAN_POINT ( 'NONE',  ( 2.094888803305879619E-15, -7.347880794884117764E-17, 0.5999999999999999778 ) ) ;
#201 = APPROVAL_STATUS ( 'not_yet_approved' ) ;
#202 = FACE_BOUND ( 'NONE', #26, .T. ) ;
#203 = PERSON_AND_ORGANIZATION ( #91, #190 ) ;
#204 = CC_DESIGN_SECURITY_CLASSIFICATION ( #162, ( #236 ) ) ;
#205 = PLANE ( 'NONE',  #47 ) ;
#206 = ORIENTED_EDGE ( 'NONE', *, *, #141, .F. ) ;
#207 = CARTESIAN_POINT ( 'NONE',  ( 0.0000000000000000000, 0.0000000000000000000, 0.0000000000000000000 ) ) ;
#208 = CARTESIAN_POINT ( 'NONE',  ( 0.0000000000000000000, 0.0000000000000000000, 0.0000000000000000000 ) ) ;
#209 = DATE_AND_TIME ( #116, #94 ) ;
#210 = CONICAL_SURFACE ( 'NONE', #181, 0.5999999999999986455, 0.7853981633974450594 ) ;
#211 = APPROVAL_DATE_TIME ( #209, #33 ) ;
#212 = CIRCLE ( 'NONE', #156, 0.5999999999999986455 ) ;
#213 = VERTEX_POINT ( 'NONE', #170 ) ;
#214 = ADVANCED_FACE ( 'NONE', ( #147 ), #27, .F. ) ;
#215 = DIRECTION ( 'NONE',  ( -3.491481338843133355E-15, 1.224646799147353207E-16, -1.000000000000000000 ) ) ;
#216 =( GEOMETRIC_REPRESENTATION_CONTEXT ( 3 ) GLOBAL_UNCERTAINTY_ASSIGNED_CONTEXT ( ( #82 ) ) GLOBAL_UNIT_ASSIGNED_CONTEXT ( ( #83, #132, #180 ) ) REPRESENTATION_CONTEXT ( 'NONE', 'WORKASPACE' ) );
#217 = CC_DESIGN_APPROVAL ( #54, ( #144 ) ) ;
#218 = CARTESIAN_POINT ( 'NONE',  ( 2.324914243470868245E-14, -8.154701429686229094E-16, 6.658819045102514877 ) ) ;
#219 = DIRECTION ( 'NONE',  ( -3.491481338843133355E-15, 1.224646799147353207E-16, -1.000000000000000000 ) ) ;
#220 = EDGE_LOOP ( 'NONE', ( #191 ) ) ;
#221 = DIRECTION ( 'NONE',  ( 0.0000000000000000000, 1.000000000000000000, 0.0000000000000000000 ) ) ;
#222 = CC_DESIGN_DATE_AND_TIME_ASSIGNMENT ( #226, #12, ( #144 ) ) ;
#223 = CONICAL_SURFACE ( 'NONE', #44, 0.7499999999999972244, 0.2617993877991725005 ) ;
#224 = PERSON_AND_ORGANIZATION_ROLE ( 'design_owner' ) ;
#225 = FACE_BOUND ( 'NONE', #273, .T. ) ;
#226 = DATE_AND_TIME ( #131, #80 ) ;
#227 = EDGE_LOOP ( 'NONE', ( #286 ) ) ;
#228 = COORDINATED_UNIVERSAL_TIME_OFFSET ( 1, 0, .AHEAD. ) ;
#229 = ADVANCED_FACE ( 'NONE', ( #71 ), #32, .F. ) ;
#230 = DIRECTION ( 'NONE',  ( 3.491481338843133355E-15, -1.224646799147353207E-16, 1.000000000000000000 ) ) ;
#231 = PERSON_AND_ORGANIZATION ( #91, #190 ) ;
#232 = AXIS2_PLACEMENT_3D ( 'NONE', #207, #252, #111 ) ;
#233 = VERTEX_POINT ( 'NONE', #159 ) ;
#234 = DIRECTION ( 'NONE',  ( 4.275831445896958607E-31, 1.000000000000000000, 1.224646799147353207E-16 ) ) ;
#235 = COORDINATED_UNIVERSAL_TIME_OFFSET ( 1, 0, .AHEAD. ) ;
#236 = PRODUCT_DEFINITION_FORMATION_WITH_SPECIFIED_SOURCE ( 'ANY', '', #22, .NOT_KNOWN. ) ;
#237 = MANIFOLD_SOLID_BREP ( 'Corps-Déplacer/Copier1[1]', #14 ) ;
#238 = EDGE_CURVE ( 'NONE', #298, #298, #72, .T. ) ;
#239 = EDGE_LOOP ( 'NONE', ( #50 ) ) ;
#240 = DIRECTION ( 'NONE',  ( 4.275831445896958607E-31, 1.000000000000000000, 1.224646799147353207E-16 ) ) ;
#241 = ORIENTED_EDGE ( 'NONE', *, *, #168, .F. ) ;
#242 = CARTESIAN_POINT ( 'NONE',  ( -5.344789307371197163E-32, 1.874699728327322010E-33, -1.530808498934191509E-17 ) ) ;
#243 = APPROVAL_PERSON_ORGANIZATION ( #256, #54, #272 ) ;
#244 = APPROVAL_PERSON_ORGANIZATION ( #203, #295, #153 ) ;
#245 = DIRECTION ( 'NONE',  ( -3.491481338843133355E-15, 1.224646799147353207E-16, -1.000000000000000000 ) ) ;
#246 = DIRECTION ( 'NONE',  ( -4.275831445896958607E-31, -1.000000000000000000, -1.224646799147353207E-16 ) ) ;
#247 = CARTESIAN_POINT ( 'NONE',  ( 2.234548056859605347E-14, 0.7129999999999993010, 6.400000000000000355 ) ) ;
#248 = AXIS2_PLACEMENT_3D ( 'NONE', #254, #39, #277 ) ;
#249 = PERSON_AND_ORGANIZATION_ROLE ( 'creator' ) ;
#250 = DIRECTION ( 'NONE',  ( -4.275831445896958607E-31, -1.000000000000000000, -1.224646799147353207E-16 ) ) ;
#251 = DATE_AND_TIME ( #40, #2 ) ;
#252 = DIRECTION ( 'NONE',  ( 0.0000000000000000000, 0.0000000000000000000, 1.000000000000000000 ) ) ;
#253 = AXIS2_PLACEMENT_3D ( 'NONE', #169, #263, #29 ) ;
#254 = CARTESIAN_POINT ( 'NONE',  ( 2.328726707989342250E-14, -8.168073755115753438E-16, 6.669738377467433921 ) ) ;
#255 = DESIGN_CONTEXT ( 'detailed design', #24, 'design' ) ;
#256 = PERSON_AND_ORGANIZATION ( #91, #190 ) ;
#257 = MECHANICAL_CONTEXT ( 'NONE', #130, 'mechanical' ) ;
#258 = DIRECTION ( 'NONE',  ( -3.491481338843133355E-15, 1.224646799147353207E-16, -1.000000000000000000 ) ) ;
#259 = AXIS2_PLACEMENT_3D ( 'NONE', #25, #215, #3 ) ;
#260 = ADVANCED_FACE ( 'NONE', ( #268, #122 ), #5, .T. ) ;
#261 = DIRECTION ( 'NONE',  ( 3.491481338843133355E-15, -1.224646799147353207E-16, 1.000000000000000000 ) ) ;
#262 = DIRECTION ( 'NONE',  ( 0.0000000000000000000, -1.000000000000000000, 0.0000000000000000000 ) ) ;
#263 = DIRECTION ( 'NONE',  ( -3.491481338843133355E-15, 1.224646799147353207E-16, -1.000000000000000000 ) ) ;
#264 = CC_DESIGN_APPROVAL ( #33, ( #162 ) ) ;
#265 = ORIENTED_EDGE ( 'NONE', *, *, #148, .F. ) ;
#266 = CARTESIAN_POINT ( 'NONE',  ( 1.047444401652940007E-13, -3.673940397442059178E-15, 30.00000000000000000 ) ) ;
#267 = ORIENTED_EDGE ( 'NONE', *, *, #64, .T. ) ;
#268 = FACE_OUTER_BOUND ( 'NONE', #138, .T. ) ;
#269 = APPROVAL_DATE_TIME ( #300, #54 ) ;
#270 = LOCAL_TIME ( 11, 35, 11.00000000000000000, #172 ) ;
#271 = CARTESIAN_POINT ( 'NONE',  ( 1.955229549752154679E-14, 5.346643625189512546E-33, 5.599999999999999645 ) ) ;
#272 = APPROVAL_ROLE ( '' ) ;
#273 = EDGE_LOOP ( 'NONE', ( #152 ) ) ;
#274 = PERSON_AND_ORGANIZATION_ROLE ( 'creator' ) ;
#275 = AXIS2_PLACEMENT_3D ( 'NONE', #208, #258, #183 ) ;
#276 = CALENDAR_DATE ( 2021, 17, 12 ) ;
#277 = DIRECTION ( 'NONE',  ( 0.0000000000000000000, 1.000000000000000000, 0.0000000000000000000 ) ) ;
#278 = APPROVAL_ROLE ( '' ) ;
#279 = DATE_TIME_ROLE ( 'classification_date' ) ;
#280 = APPROVAL_STATUS ( 'not_yet_approved' ) ;
#281 = ORIENTED_EDGE ( 'NONE', *, *, #106, .T. ) ;
#282 = CARTESIAN_POINT ( 'NONE',  ( 2.138211768073756517E-47, 0.2500000000000000000, 0.0000000000000000000 ) ) ;
#283 = CIRCLE ( 'NONE', #143, 0.2500000000000000000 ) ;
#284 = PRODUCT_RELATED_PRODUCT_CATEGORY ( 'detail', '', ( #22 ) ) ;
#285 = FACE_OUTER_BOUND ( 'NONE', #155, .T. ) ;
#286 = ORIENTED_EDGE ( 'NONE', *, *, #141, .T. ) ;
#287 = DIRECTION ( 'NONE',  ( -4.275831445896958607E-31, -1.000000000000000000, -1.224646799147353207E-16 ) ) ;
#288 = DIRECTION ( 'NONE',  ( -3.491481338843133355E-15, 1.224646799147353207E-16, -1.000000000000000000 ) ) ;
#289 = CIRCLE ( 'NONE', #195, 0.7130000000000000782 ) ;
#290 = EDGE_LOOP ( 'NONE', ( #52 ) ) ;
#291 = DIRECTION ( 'NONE',  ( -3.491481338843133355E-15, 1.224646799147353207E-16, -1.000000000000000000 ) ) ;
#292 = DIRECTION ( 'NONE',  ( -3.491481338843133355E-15, 1.224646799147353207E-16, -1.000000000000000000 ) ) ;
#293 = EDGE_LOOP ( 'NONE', ( #77 ) ) ;
#294 = CARTESIAN_POINT ( 'NONE',  ( 2.094888803305880013E-15, 0.7129999999999993010, 0.6000000000000000888 ) ) ;
#295 = APPROVAL ( #201, 'UNSPECIFIED' ) ;
#296 = AXIS2_PLACEMENT_3D ( 'NONE', #56, #291, #4 ) ;
#297 = ORIENTED_EDGE ( 'NONE', *, *, #238, .T. ) ;
#298 = VERTEX_POINT ( 'NONE', #151 ) ;
#299 = DIRECTION ( 'NONE',  ( 3.491481338843133355E-15, -1.224646799147353207E-16, 1.000000000000000000 ) ) ;
#300 = DATE_AND_TIME ( #276, #270 ) ;
#301 = AXIS2_PLACEMENT_3D ( 'NONE', #177, #292, #61 ) ;
#302 = FACE_OUTER_BOUND ( 'NONE', #104, .T. ) ;
#303 = AXIS2_PLACEMENT_3D ( 'NONE', #49, #121, #166 ) ;
ENDSEC;
END-ISO-10303-21;
