ISO-10303-21;
HEADER;
FILE_DESCRIPTION (( 'STEP AP203' ),
    '1' );
FILE_NAME ('973390.step',
    '2021-12-01T10:40:33',
    ( '' ),
    ( '' ),
    'SwSTEP 2.0',
    'SolidWorks 2019',
    '' );
FILE_SCHEMA (( 'CONFIG_CONTROL_DESIGN' ));
ENDSEC;

DATA;
#1 = CIRCLE ( 'NONE', #232, 0.5256624327025949395 ) ;
#2 = LOCAL_TIME ( 11, 40, 33.00000000000000000, #200 ) ;
#3 = PERSON_AND_ORGANIZATION_ROLE ( 'creator' ) ;
#4 = CARTESIAN_POINT ( 'NONE',  ( 0.0000000000000000000, 0.0000000000000000000, 0.0000000000000000000 ) ) ;
#5 = PERSON ( 'UNSPECIFIED', 'UNSPECIFIED', 'UNSPECIFIED', ('UNSPECIFIED'), ('UNSPECIFIED'), ('UNSPECIFIED') ) ;
#6 = DATE_AND_TIME ( #261, #2 ) ;
#7 = EDGE_LOOP ( 'NONE', ( #166 ) ) ;
#8 = DIRECTION ( 'NONE',  ( 4.275831445896958607E-31, 1.000000000000000000, 1.224646799147353207E-16 ) ) ;
#9 = PRODUCT_DEFINITION_FORMATION_WITH_SPECIFIED_SOURCE ( 'ANY', '', #287, .NOT_KNOWN. ) ;
#10 = FACE_BOUND ( 'NONE', #185, .T. ) ;
#11 = DIRECTION ( 'NONE',  ( -4.275831445896958607E-31, -1.000000000000000000, -1.224646799147353207E-16 ) ) ;
#12 = DIRECTION ( 'NONE',  ( 0.0000000000000000000, 1.000000000000000000, 0.0000000000000000000 ) ) ;
#13 = CIRCLE ( 'NONE', #106, 0.6699999999999992628 ) ;
#14 = CARTESIAN_POINT ( 'NONE',  ( 2.094888803305880013E-14, 0.6699999999999992628, 6.000000000000000000 ) ) ;
#15 = CARTESIAN_POINT ( 'NONE',  ( 2.094888803305880013E-14, 0.6699999999999992628, 6.000000000000000000 ) ) ;
#16 = FACE_OUTER_BOUND ( 'NONE', #100, .T. ) ;
#17 = DIRECTION ( 'NONE',  ( -3.491481338843133355E-15, 1.224646799147353207E-16, -1.000000000000000000 ) ) ;
#18 = APPROVAL_PERSON_ORGANIZATION ( #83, #302, #60 ) ;
#19 = COORDINATED_UNIVERSAL_TIME_OFFSET ( 1, 0, .AHEAD. ) ;
#20 = ADVANCED_FACE ( 'NONE', ( #290 ), #74, .T. ) ;
#21 = COORDINATED_UNIVERSAL_TIME_OFFSET ( 1, 0, .AHEAD. ) ;
#22 = PERSON_AND_ORGANIZATION ( #5, #156 ) ;
#23 = ORIENTED_EDGE ( 'NONE', *, *, #298, .T. ) ;
#24 = CARTESIAN_POINT ( 'NONE',  ( 4.660183614865709118E-14, -1.634572375883072808E-15, 13.34729635533384595 ) ) ;
#25 = ORIENTED_EDGE ( 'NONE', *, *, #250, .T. ) ;
#26 = AXIS2_PLACEMENT_3D ( 'NONE', #149, #97, #269 ) ;
#27 = FACE_OUTER_BOUND ( 'NONE', #268, .T. ) ;
#28 = APPROVAL ( #62, 'UNSPECIFIED' ) ;
#29 = DIRECTION ( 'NONE',  ( 0.0000000000000000000, 1.000000000000000000, 0.0000000000000000000 ) ) ;
#30 = EDGE_LOOP ( 'NONE', ( #244 ) ) ;
#31 = VERTEX_POINT ( 'NONE', #14 ) ;
#32 = CONICAL_SURFACE ( 'NONE', #143, 1.499999999999997558, 0.1745329251994259256 ) ;
#33 = SECURITY_CLASSIFICATION ( '', '', #139 ) ;
#34 = ADVANCED_FACE ( 'NONE', ( #191, #292 ), #203, .T. ) ;
#35 = FACE_BOUND ( 'NONE', #129, .T. ) ;
#36 = DIRECTION ( 'NONE',  ( 0.0000000000000000000, 1.000000000000000000, 0.0000000000000000000 ) ) ;
#37 = VERTEX_POINT ( 'NONE', #228 ) ;
#38 = CIRCLE ( 'NONE', #26, 0.6700000000000000400 ) ;
#39 = ADVANCED_FACE ( 'NONE', ( #276, #59 ), #84, .F. ) ;
#40 = FACE_OUTER_BOUND ( 'NONE', #115, .T. ) ;
#41 = PERSON_AND_ORGANIZATION ( #5, #156 ) ;
#42 = PERSON_AND_ORGANIZATION ( #5, #156 ) ;
#43 = APPROVAL_DATE_TIME ( #6, #302 ) ;
#44 = CARTESIAN_POINT ( 'NONE',  ( 0.0000000000000000000, 0.0000000000000000000, 0.0000000000000000000 ) ) ;
#45 = ORIENTED_EDGE ( 'NONE', *, *, #68, .T. ) ;
#46 = CC_DESIGN_PERSON_AND_ORGANIZATION_ASSIGNMENT ( #107, #87, ( #33 ) ) ;
#47 = AXIS2_PLACEMENT_3D ( 'NONE', #70, #165, #50 ) ;
#48 = DIRECTION ( 'NONE',  ( -3.491481338843133355E-15, 1.224646799147353207E-16, -1.000000000000000000 ) ) ;
#49 = DIRECTION ( 'NONE',  ( 0.0000000000000000000, 1.000000000000000000, 0.0000000000000000000 ) ) ;
#50 = DIRECTION ( 'NONE',  ( 0.0000000000000000000, 1.000000000000000000, 0.0000000000000000000 ) ) ;
#51 = DIRECTION ( 'NONE',  ( 0.0000000000000000000, -1.000000000000000000, 0.0000000000000000000 ) ) ;
#52 = DIRECTION ( 'NONE',  ( 3.491481338843133355E-15, -1.224646799147353207E-16, 1.000000000000000000 ) ) ;
#53 = CC_DESIGN_PERSON_AND_ORGANIZATION_ASSIGNMENT ( #42, #153, ( #9 ) ) ;
#54 = AXIS2_PLACEMENT_3D ( 'NONE', #80, #176, #277 ) ;
#55 = CARTESIAN_POINT ( 'NONE',  ( 4.660183614865709118E-14, 0.6403844939755808374, 13.34729635533384595 ) ) ;
#56 = CC_DESIGN_PERSON_AND_ORGANIZATION_ASSIGNMENT ( #22, #278, ( #287 ) ) ;
#57 = AXIS2_PLACEMENT_3D ( 'NONE', #291, #169, #120 ) ;
#58 = CARTESIAN_POINT ( 'NONE',  ( 2.131173341741210696E-14, 0.6099999999999983213, 6.103923048454136691 ) ) ;
#59 = FACE_OUTER_BOUND ( 'NONE', #86, .T. ) ;
#60 = APPROVAL_ROLE ( '' ) ;
#61 = APPROVAL_STATUS ( 'not_yet_approved' ) ;
#62 = APPROVAL_STATUS ( 'not_yet_approved' ) ;
#63 = EDGE_LOOP ( 'NONE', ( #190 ) ) ;
#64 = AXIS2_PLACEMENT_3D ( 'NONE', #208, #90, #163 ) ;
#65 = AXIS2_PLACEMENT_3D ( 'NONE', #167, #212, #11 ) ;
#66 =( GEOMETRIC_REPRESENTATION_CONTEXT ( 3 ) GLOBAL_UNCERTAINTY_ASSIGNED_CONTEXT ( ( #148 ) ) GLOBAL_UNIT_ASSIGNED_CONTEXT ( ( #248, #131, #77 ) ) REPRESENTATION_CONTEXT ( 'NONE', 'WORKASPACE' ) );
#67 = FACE_OUTER_BOUND ( 'NONE', #236, .T. ) ;
#68 = EDGE_CURVE ( 'NONE', #31, #31, #89, .T. ) ;
#69 = DIRECTION ( 'NONE',  ( -3.491481338843133355E-15, 1.224646799147353207E-16, -1.000000000000000000 ) ) ;
#70 = CARTESIAN_POINT ( 'NONE',  ( 4.538925740496073362E-14, -1.592040838891559095E-15, 13.00000000000000000 ) ) ;
#71 = AXIS2_PLACEMENT_3D ( 'NONE', #211, #48, #75 ) ;
#72 = EDGE_LOOP ( 'NONE', ( #189 ) ) ;
#73 = CARTESIAN_POINT ( 'NONE',  ( -4.140379786059610583E-31, 1.452249735905036913E-32, -1.185851901883996056E-16 ) ) ;
#74 = PLANE ( 'NONE',  #183 ) ;
#75 = DIRECTION ( 'NONE',  ( 0.0000000000000000000, 1.000000000000000000, 0.0000000000000000000 ) ) ;
#76 = AXIS2_PLACEMENT_3D ( 'NONE', #4, #17, #227 ) ;
#77 =( NAMED_UNIT ( * ) SI_UNIT ( $, .STERADIAN. ) SOLID_ANGLE_UNIT ( ) );
#78 = ADVANCED_FACE ( 'NONE', ( #35, #196 ), #209, .T. ) ;
#79 = CARTESIAN_POINT ( 'NONE',  ( 1.316288464743861212E-13, 1.499999999999998668, 37.69999999999999574 ) ) ;
#80 = CARTESIAN_POINT ( 'NONE',  ( 0.0000000000000000000, 0.0000000000000000000, 0.0000000000000000000 ) ) ;
#81 = PERSON_AND_ORGANIZATION ( #5, #156 ) ;
#82 = CALENDAR_DATE ( 2021, 1, 12 ) ;
#83 = PERSON_AND_ORGANIZATION ( #5, #156 ) ;
#84 = TOROIDAL_SURFACE ( 'NONE', #179, 2.610000000000000320, 2.000000000000000000 ) ;
#85 = AXIS2_PLACEMENT_3D ( 'NONE', #44, #234, #157 ) ;
#86 = EDGE_LOOP ( 'NONE', ( #25 ) ) ;
#87 = PERSON_AND_ORGANIZATION_ROLE ( 'classification_officer' ) ;
#88 = ORIENTED_EDGE ( 'NONE', *, *, #233, .F. ) ;
#89 = CIRCLE ( 'NONE', #216, 0.6700000000000000400 ) ;
#90 = DIRECTION ( 'NONE',  ( -3.491481338843133355E-15, 1.224646799147353207E-16, -1.000000000000000000 ) ) ;
#91 = APPROVAL ( #140, 'UNSPECIFIED' ) ;
#92 = CC_DESIGN_APPROVAL ( #91, ( #237 ) ) ;
#93 = CARTESIAN_POINT ( 'NONE',  ( 1.326762908760390423E-13, 8.998558695971103225E-33, 38.00000000000000000 ) ) ;
#94 = DIRECTION ( 'NONE',  ( -3.491481338843133355E-15, 1.224646799147353207E-16, -1.000000000000000000 ) ) ;
#95 = DESIGN_CONTEXT ( 'detailed design', #254, 'design' ) ;
#96 = ORIENTED_EDGE ( 'NONE', *, *, #135, .T. ) ;
#97 = DIRECTION ( 'NONE',  ( -3.491481338843133355E-15, 1.224646799147353207E-16, -1.000000000000000000 ) ) ;
#98 = CIRCLE ( 'NONE', #224, 0.6099999999999990985 ) ;
#99 = PLANE ( 'NONE',  #197 ) ;
#100 = EDGE_LOOP ( 'NONE', ( #215 ) ) ;
#101 = ORIENTED_EDGE ( 'NONE', *, *, #194, .F. ) ;
#102 = LOCAL_TIME ( 11, 40, 33.00000000000000000, #19 ) ;
#103 = ORIENTED_EDGE ( 'NONE', *, *, #286, .F. ) ;
#104 = CYLINDRICAL_SURFACE ( 'NONE', #54, 0.6699999999999995959 ) ;
#105 = ADVANCED_FACE ( 'NONE', ( #255, #40 ), #136, .T. ) ;
#106 = AXIS2_PLACEMENT_3D ( 'NONE', #243, #94, #187 ) ;
#107 = PERSON_AND_ORGANIZATION ( #5, #156 ) ;
#108 = COORDINATED_UNIVERSAL_TIME_OFFSET ( 1, 0, .AHEAD. ) ;
#109 = CALENDAR_DATE ( 2021, 1, 12 ) ;
#110 = ADVANCED_FACE ( 'NONE', ( #16, #231 ), #104, .T. ) ;
#111 = DATE_AND_TIME ( #109, #112 ) ;
#112 = LOCAL_TIME ( 11, 40, 33.00000000000000000, #108 ) ;
#113 = ORIENTED_EDGE ( 'NONE', *, *, #141, .T. ) ;
#114 = PERSON_AND_ORGANIZATION ( #5, #156 ) ;
#115 = EDGE_LOOP ( 'NONE', ( #123 ) ) ;
#116 = CC_DESIGN_DATE_AND_TIME_ASSIGNMENT ( #111, #178, ( #33 ) ) ;
#117 = AXIS2_PLACEMENT_3D ( 'NONE', #296, #173, #222 ) ;
#118 = CARTESIAN_POINT ( 'NONE',  ( 2.131173341741210696E-14, -7.475149823531112224E-16, 6.103923048454136691 ) ) ;
#119 = LOCAL_TIME ( 11, 40, 33.00000000000000000, #21 ) ;
#120 = DIRECTION ( 'NONE',  ( -4.275831445896958607E-31, -1.000000000000000000, -1.224646799147353207E-16 ) ) ;
#121 = FACE_BOUND ( 'NONE', #72, .T. ) ;
#122 = PRODUCT_RELATED_PRODUCT_CATEGORY ( 'detail', '', ( #287 ) ) ;
#123 = ORIENTED_EDGE ( 'NONE', *, *, #286, .T. ) ;
#124 = FACE_OUTER_BOUND ( 'NONE', #151, .T. ) ;
#125 = AXIS2_PLACEMENT_3D ( 'NONE', #170, #273, #155 ) ;
#126 = CC_DESIGN_APPROVAL ( #302, ( #9 ) ) ;
#127 = DIRECTION ( 'NONE',  ( -4.275831445896958607E-31, -1.000000000000000000, -1.224646799147353207E-16 ) ) ;
#128 = VERTEX_POINT ( 'NONE', #134 ) ;
#129 = EDGE_LOOP ( 'NONE', ( #101 ) ) ;
#130 = CC_DESIGN_PERSON_AND_ORGANIZATION_ASSIGNMENT ( #303, #257, ( #237 ) ) ;
#131 =( NAMED_UNIT ( * ) PLANE_ANGLE_UNIT ( ) SI_UNIT ( $, .RADIAN. ) );
#132 = CLOSED_SHELL ( 'NONE', ( #279, #270, #105, #39, #225, #34, #186, #219 ) ) ;
#133 = DIRECTION ( 'NONE',  ( 4.275831445896958607E-31, 1.000000000000000000, 1.224646799147353207E-16 ) ) ;
#134 = CARTESIAN_POINT ( 'NONE',  ( 1.326762908760390423E-13, 1.199999999999998845, 38.00000000000000000 ) ) ;
#135 = EDGE_CURVE ( 'NONE', #251, #251, #175, .T. ) ;
#136 = CYLINDRICAL_SURFACE ( 'NONE', #266, 0.6099999999999996536 ) ;
#137 = DATE_AND_TIME ( #180, #119 ) ;
#138 = LOCAL_TIME ( 11, 40, 33.00000000000000000, #199 ) ;
#139 = SECURITY_CLASSIFICATION_LEVEL ( 'unclassified' ) ;
#140 = APPROVAL_STATUS ( 'not_yet_approved' ) ;
#141 = EDGE_CURVE ( 'NONE', #171, #171, #241, .T. ) ;
#142 = EDGE_LOOP ( 'NONE', ( #213 ) ) ;
#143 = AXIS2_PLACEMENT_3D ( 'NONE', #289, #283, #51 ) ;
#144 = DIRECTION ( 'NONE',  ( -3.491481338843133355E-15, 1.224646799147353207E-16, -1.000000000000000000 ) ) ;
#145 = EDGE_LOOP ( 'NONE', ( #240 ) ) ;
#146 = FACE_OUTER_BOUND ( 'NONE', #142, .T. ) ;
#147 = DIRECTION ( 'NONE',  ( -3.491481338843133355E-15, 1.224646799147353207E-16, -1.000000000000000000 ) ) ;
#148 = UNCERTAINTY_MEASURE_WITH_UNIT (LENGTH_MEASURE( 1.000000000000000082E-05 ), #248, 'distance_accuracy_value', 'NONE');
#149 = CARTESIAN_POINT ( 'NONE',  ( 2.094888803305880013E-14, -7.347880794884119736E-16, 6.000000000000000000 ) ) ;
#150 = FACE_OUTER_BOUND ( 'NONE', #145, .T. ) ;
#151 = EDGE_LOOP ( 'NONE', ( #88 ) ) ;
#152 = APPLICATION_PROTOCOL_DEFINITION ( 'international standard', 'config_control_design', 1994, #230 ) ;
#153 = PERSON_AND_ORGANIZATION_ROLE ( 'design_supplier' ) ;
#154 = CALENDAR_DATE ( 2021, 1, 12 ) ;
#155 = DIRECTION ( 'NONE',  ( 0.0000000000000000000, 1.000000000000000000, 0.0000000000000000000 ) ) ;
#156 = ORGANIZATION ( 'UNSPECIFIED', 'UNSPECIFIED', '' ) ;
#157 = DIRECTION ( 'NONE',  ( 1.000000000000000000, 0.0000000000000000000, 0.0000000000000000000 ) ) ;
#158 = EDGE_LOOP ( 'NONE', ( #96 ) ) ;
#159 = CONICAL_SURFACE ( 'NONE', #64, 1.200000000000003286, 0.7853981633974453924 ) ;
#160 = APPROVAL_PERSON_ORGANIZATION ( #41, #28, #235 ) ;
#161 = EDGE_LOOP ( 'NONE', ( #207 ) ) ;
#162 = CARTESIAN_POINT ( 'NONE',  ( 6.362323290714239052E-14, -2.231602605585030822E-15, 18.22241814651178871 ) ) ;
#163 = DIRECTION ( 'NONE',  ( 0.0000000000000000000, 1.000000000000000000, 0.0000000000000000000 ) ) ;
#164 = EDGE_CURVE ( 'NONE', #193, #193, #98, .T. ) ;
#165 = DIRECTION ( 'NONE',  ( -3.491481338843133355E-15, 1.224646799147353207E-16, -1.000000000000000000 ) ) ;
#166 = ORIENTED_EDGE ( 'NONE', *, *, #164, .T. ) ;
#167 = CARTESIAN_POINT ( 'NONE',  ( 2.094888803305880013E-14, 5.024195271917211765E-33, 6.000000000000000000 ) ) ;
#168 = EDGE_LOOP ( 'NONE', ( #45 ) ) ;
#169 = DIRECTION ( 'NONE',  ( 3.491481338843133355E-15, -1.224646799147353207E-16, 1.000000000000000000 ) ) ;
#170 = CARTESIAN_POINT ( 'NONE',  ( 1.316288464743861212E-13, -4.616918432785521081E-15, 37.69999999999999574 ) ) ;
#171 = VERTEX_POINT ( 'NONE', #299 ) ;
#172 = VERTEX_POINT ( 'NONE', #15 ) ;
#173 = DIRECTION ( 'NONE',  ( 3.491481338843133355E-15, -1.224646799147353207E-16, 1.000000000000000000 ) ) ;
#174 = CC_DESIGN_PERSON_AND_ORGANIZATION_ASSIGNMENT ( #81, #3, ( #9 ) ) ;
#175 = CIRCLE ( 'NONE', #125, 1.500000000000003331 ) ;
#176 = DIRECTION ( 'NONE',  ( -3.491481338843133355E-15, 1.224646799147353207E-16, -1.000000000000000000 ) ) ;
#177 = APPROVAL_DATE_TIME ( #205, #91 ) ;
#178 = DATE_TIME_ROLE ( 'classification_date' ) ;
#179 = AXIS2_PLACEMENT_3D ( 'NONE', #275, #226, #195 ) ;
#180 = CALENDAR_DATE ( 2021, 1, 12 ) ;
#181 = MECHANICAL_CONTEXT ( 'NONE', #230, 'mechanical' ) ;
#182 = EDGE_LOOP ( 'NONE', ( #229 ) ) ;
#183 = AXIS2_PLACEMENT_3D ( 'NONE', #262, #52, #127 ) ;
#184 = PLANE ( 'NONE',  #57 ) ;
#185 = EDGE_LOOP ( 'NONE', ( #271 ) ) ;
#186 = ADVANCED_FACE ( 'NONE', ( #150, #10 ), #159, .T. ) ;
#187 = DIRECTION ( 'NONE',  ( 2.874522305055579011E-31, 1.000000000000000000, 1.618212197739560608E-16 ) ) ;
#188 = AXIS2_PLACEMENT_3D ( 'NONE', #24, #147, #242 ) ;
#189 = ORIENTED_EDGE ( 'NONE', *, *, #250, .F. ) ;
#190 = ORIENTED_EDGE ( 'NONE', *, *, #68, .F. ) ;
#191 = FACE_OUTER_BOUND ( 'NONE', #182, .T. ) ;
#192 = CARTESIAN_POINT ( 'NONE',  ( 4.538925740496073362E-14, 0.6099999999999985434, 13.00000000000000000 ) ) ;
#193 = VERTEX_POINT ( 'NONE', #58 ) ;
#194 = EDGE_CURVE ( 'NONE', #37, #37, #1, .T. ) ;
#195 = DIRECTION ( 'NONE',  ( 4.275831445896958607E-31, 1.000000000000000000, 1.224646799147353207E-16 ) ) ;
#196 = FACE_OUTER_BOUND ( 'NONE', #161, .T. ) ;
#197 = AXIS2_PLACEMENT_3D ( 'NONE', #93, #264, #8 ) ;
#198 = CIRCLE ( 'NONE', #47, 0.6100000000000002087 ) ;
#199 = COORDINATED_UNIVERSAL_TIME_OFFSET ( 1, 0, .AHEAD. ) ;
#200 = COORDINATED_UNIVERSAL_TIME_OFFSET ( 1, 0, .AHEAD. ) ;
#201 = CIRCLE ( 'NONE', #71, 1.200000000000003286 ) ;
#202 = APPROVAL_ROLE ( '' ) ;
#203 = CYLINDRICAL_SURFACE ( 'NONE', #76, 1.500000000000000444 ) ;
#204 = MANIFOLD_SOLID_BREP ( 'Corps-Déplacer/Copier1[1]', #132 ) ;
#205 = DATE_AND_TIME ( #82, #138 ) ;
#206 = MANIFOLD_SOLID_BREP ( 'Corps-Déplacer/Copier1[2]', #260 ) ;
#207 = ORIENTED_EDGE ( 'NONE', *, *, #282, .T. ) ;
#208 = CARTESIAN_POINT ( 'NONE',  ( 1.326762908760390423E-13, -4.653657836759941941E-15, 38.00000000000000000 ) ) ;
#209 = CONICAL_SURFACE ( 'NONE', #117, 0.6699999999999992628, 0.5235987755982923764 ) ;
#210 = CC_DESIGN_APPROVAL ( #28, ( #33 ) ) ;
#211 = CARTESIAN_POINT ( 'NONE',  ( 1.326762908760390423E-13, -4.653657836759941941E-15, 38.00000000000000000 ) ) ;
#212 = DIRECTION ( 'NONE',  ( 3.491481338843133355E-15, -1.224646799147353207E-16, 1.000000000000000000 ) ) ;
#213 = ORIENTED_EDGE ( 'NONE', *, *, #298, .F. ) ;
#214 = DIRECTION ( 'NONE',  ( -3.491481338843133355E-15, 1.224646799147353207E-16, -1.000000000000000000 ) ) ;
#215 = ORIENTED_EDGE ( 'NONE', *, *, #282, .F. ) ;
#216 = AXIS2_PLACEMENT_3D ( 'NONE', #247, #249, #36 ) ;
#217 = DIRECTION ( 'NONE',  ( -3.491481338843133355E-15, 1.224646799147353207E-16, -1.000000000000000000 ) ) ;
#218 = CC_DESIGN_SECURITY_CLASSIFICATION ( #33, ( #9 ) ) ;
#219 = ADVANCED_FACE ( 'NONE', ( #124 ), #99, .F. ) ;
#220 = ORIENTED_EDGE ( 'NONE', *, *, #194, .T. ) ;
#221 = VERTEX_POINT ( 'NONE', #295 ) ;
#222 = DIRECTION ( 'NONE',  ( -2.874522305055579011E-31, -1.000000000000000000, -1.618212197739560608E-16 ) ) ;
#223 = VERTEX_POINT ( 'NONE', #55 ) ;
#224 = AXIS2_PLACEMENT_3D ( 'NONE', #118, #217, #49 ) ;
#225 = ADVANCED_FACE ( 'NONE', ( #121, #285 ), #32, .T. ) ;
#226 = DIRECTION ( 'NONE',  ( -3.491481338843133355E-15, 1.224646799147353207E-16, -1.000000000000000000 ) ) ;
#227 = DIRECTION ( 'NONE',  ( 4.275831445896958607E-31, 1.000000000000000000, 1.224646799147353207E-16 ) ) ;
#228 = CARTESIAN_POINT ( 'NONE',  ( -1.892735826383161356E-31, 0.5256624327025949395, -5.421010862427522170E-17 ) ) ;
#229 = ORIENTED_EDGE ( 'NONE', *, *, #141, .F. ) ;
#230 = APPLICATION_CONTEXT ( 'configuration controlled 3d designs of mechanical parts and assemblies' ) ;
#231 = FACE_OUTER_BOUND ( 'NONE', #168, .T. ) ;
#232 = AXIS2_PLACEMENT_3D ( 'NONE', #73, #69, #265 ) ;
#233 = EDGE_CURVE ( 'NONE', #128, #128, #201, .T. ) ;
#234 = DIRECTION ( 'NONE',  ( 0.0000000000000000000, 0.0000000000000000000, 1.000000000000000000 ) ) ;
#235 = APPROVAL_ROLE ( '' ) ;
#236 = EDGE_LOOP ( 'NONE', ( #23 ) ) ;
#237 = PRODUCT_DEFINITION ( 'UNKNOWN', '', #9, #95 ) ;
#238 = APPLICATION_PROTOCOL_DEFINITION ( 'international standard', 'config_control_design', 1994, #254 ) ;
#239 = EDGE_LOOP ( 'NONE', ( #103 ) ) ;
#240 = ORIENTED_EDGE ( 'NONE', *, *, #135, .F. ) ;
#241 = CIRCLE ( 'NONE', #245, 1.499999999999997558 ) ;
#242 = DIRECTION ( 'NONE',  ( 0.0000000000000000000, 1.000000000000000000, 0.0000000000000000000 ) ) ;
#243 = CARTESIAN_POINT ( 'NONE',  ( 8.728703347107829444E-16, -3.061616997868381785E-17, 0.2499999999999998890 ) ) ;
#244 = ORIENTED_EDGE ( 'NONE', *, *, #164, .F. ) ;
#245 = AXIS2_PLACEMENT_3D ( 'NONE', #162, #144, #29 ) ;
#246 = CONICAL_SURFACE ( 'NONE', #274, 0.6099999999999990985, 0.5235987755982904890 ) ;
#247 = CARTESIAN_POINT ( 'NONE',  ( 2.094888803305880013E-14, -7.347880794884119736E-16, 6.000000000000000000 ) ) ;
#248 =( LENGTH_UNIT ( ) NAMED_UNIT ( * ) SI_UNIT ( .MILLI., .METRE. ) );
#249 = DIRECTION ( 'NONE',  ( -3.491481338843133355E-15, 1.224646799147353207E-16, -1.000000000000000000 ) ) ;
#250 = EDGE_CURVE ( 'NONE', #223, #223, #252, .T. ) ;
#251 = VERTEX_POINT ( 'NONE', #79 ) ;
#252 = CIRCLE ( 'NONE', #188, 0.6403844939755825028 ) ;
#253 = PRODUCT_DEFINITION_SHAPE ( 'NONE', 'NONE',  #237 ) ;
#254 = APPLICATION_CONTEXT ( 'configuration controlled 3d designs of mechanical parts and assemblies' ) ;
#255 = FACE_OUTER_BOUND ( 'NONE', #30, .T. ) ;
#256 = CARTESIAN_POINT ( 'NONE',  ( 0.0000000000000000000, 0.0000000000000000000, 0.0000000000000000000 ) ) ;
#257 = PERSON_AND_ORGANIZATION_ROLE ( 'creator' ) ;
#258 = ADVANCED_FACE ( 'NONE', ( #27 ), #184, .F. ) ;
#259 = DATE_AND_TIME ( #154, #102 ) ;
#260 = CLOSED_SHELL ( 'NONE', ( #258, #78, #110, #20 ) ) ;
#261 = CALENDAR_DATE ( 2021, 1, 12 ) ;
#262 = CARTESIAN_POINT ( 'NONE',  ( 2.094888803305880013E-14, 5.024195271917211765E-33, 6.000000000000000000 ) ) ;
#263 = APPROVAL_DATE_TIME ( #137, #28 ) ;
#264 = DIRECTION ( 'NONE',  ( -3.491481338843133355E-15, 1.224646799147353207E-16, -1.000000000000000000 ) ) ;
#265 = DIRECTION ( 'NONE',  ( 4.275831445896958607E-31, 1.000000000000000000, 1.224646799147353454E-16 ) ) ;
#266 = AXIS2_PLACEMENT_3D ( 'NONE', #256, #297, #133 ) ;
#267 = PLANE ( 'NONE',  #65 ) ;
#268 = EDGE_LOOP ( 'NONE', ( #220 ) ) ;
#269 = DIRECTION ( 'NONE',  ( 0.0000000000000000000, 1.000000000000000000, 0.0000000000000000000 ) ) ;
#270 = ADVANCED_FACE ( 'NONE', ( #146, #272 ), #246, .T. ) ;
#271 = ORIENTED_EDGE ( 'NONE', *, *, #233, .T. ) ;
#272 = FACE_BOUND ( 'NONE', #7, .T. ) ;
#273 = DIRECTION ( 'NONE',  ( -3.491481338843133355E-15, 1.224646799147353207E-16, -1.000000000000000000 ) ) ;
#274 = AXIS2_PLACEMENT_3D ( 'NONE', #281, #214, #12 ) ;
#275 = CARTESIAN_POINT ( 'NONE',  ( 4.538925740496073362E-14, -1.734723475976807094E-15, 13.00000000000000000 ) ) ;
#276 = FACE_OUTER_BOUND ( 'NONE', #239, .T. ) ;
#277 = DIRECTION ( 'NONE',  ( 4.275831445896958607E-31, 1.000000000000000000, 1.224646799147352961E-16 ) ) ;
#278 = PERSON_AND_ORGANIZATION_ROLE ( 'design_owner' ) ;
#279 = ADVANCED_FACE ( 'NONE', ( #67 ), #267, .F. ) ;
#280 = APPROVAL_PERSON_ORGANIZATION ( #114, #91, #202 ) ;
#281 = CARTESIAN_POINT ( 'NONE',  ( 2.131173341741210696E-14, -7.475149823531112224E-16, 6.103923048454136691 ) ) ;
#282 = EDGE_CURVE ( 'NONE', #221, #221, #13, .T. ) ;
#283 = DIRECTION ( 'NONE',  ( 3.491481338843133355E-15, -1.224646799147353207E-16, 1.000000000000000000 ) ) ;
#284 = ADVANCED_BREP_SHAPE_REPRESENTATION ( '973390', ( #204, #206, #85 ), #66 ) ;
#285 = FACE_OUTER_BOUND ( 'NONE', #288, .T. ) ;
#286 = EDGE_CURVE ( 'NONE', #294, #294, #198, .T. ) ;
#287 = PRODUCT ( '973390', '973390', '', ( #181 ) ) ;
#288 = EDGE_LOOP ( 'NONE', ( #113 ) ) ;
#289 = CARTESIAN_POINT ( 'NONE',  ( 6.362323290714239052E-14, -2.231602605585030822E-15, 18.22241814651178871 ) ) ;
#290 = FACE_OUTER_BOUND ( 'NONE', #63, .T. ) ;
#291 = CARTESIAN_POINT ( 'NONE',  ( -2.070189893029805291E-31, 7.261248679525184563E-33, -5.929259509419980278E-17 ) ) ;
#292 = FACE_OUTER_BOUND ( 'NONE', #158, .T. ) ;
#293 = CC_DESIGN_DATE_AND_TIME_ASSIGNMENT ( #259, #300, ( #237 ) ) ;
#294 = VERTEX_POINT ( 'NONE', #192 ) ;
#295 = CARTESIAN_POINT ( 'NONE',  ( 8.728703347107831416E-16, 0.6699999999999992628, 0.2500000000000000000 ) ) ;
#296 = CARTESIAN_POINT ( 'NONE',  ( 8.728703347107829444E-16, -3.061616997868381785E-17, 0.2499999999999998890 ) ) ;
#297 = DIRECTION ( 'NONE',  ( -3.491481338843133355E-15, 1.224646799147353207E-16, -1.000000000000000000 ) ) ;
#298 = EDGE_CURVE ( 'NONE', #172, #172, #38, .T. ) ;
#299 = CARTESIAN_POINT ( 'NONE',  ( 6.362323290714239052E-14, 1.499999999999995559, 18.22241814651178871 ) ) ;
#300 = DATE_TIME_ROLE ( 'creation_date' ) ;
#301 = SHAPE_DEFINITION_REPRESENTATION ( #253, #284 ) ;
#302 = APPROVAL ( #61, 'UNSPECIFIED' ) ;
#303 = PERSON_AND_ORGANIZATION ( #5, #156 ) ;
ENDSEC;
END-ISO-10303-21;
