ISO-10303-21;
HEADER;
FILE_DESCRIPTION (( 'STEP AP203' ),
    '1' );
FILE_NAME ('973253.step',
    '2021-12-01T07:27:31',
    ( '' ),
    ( '' ),
    'SwSTEP 2.0',
    'SolidWorks 2019',
    '' );
FILE_SCHEMA (( 'CONFIG_CONTROL_DESIGN' ));
ENDSEC;

DATA;
#1 = UNCERTAINTY_MEASURE_WITH_UNIT (LENGTH_MEASURE( 1.000000000000000082E-05 ), #167, 'distance_accuracy_value', 'NONE');
#2 = EDGE_LOOP ( 'NONE', ( #262 ) ) ;
#3 = ADVANCED_FACE ( 'NONE', ( #16, #280 ), #249, .T. ) ;
#4 = AXIS2_PLACEMENT_3D ( 'NONE', #94, #188, #21 ) ;
#5 = CC_DESIGN_PERSON_AND_ORGANIZATION_ASSIGNMENT ( #88, #180, ( #169 ) ) ;
#6 = DIRECTION ( 'NONE',  ( 3.491481338843133355E-15, -1.224646799147353207E-16, 1.000000000000000000 ) ) ;
#7 = FACE_BOUND ( 'NONE', #106, .T. ) ;
#8 = ORIENTED_EDGE ( 'NONE', *, *, #137, .T. ) ;
#9 = CARTESIAN_POINT ( 'NONE',  ( 4.561824529340828078E-14, -1.600072652824258416E-15, 13.06558473788762065 ) ) ;
#10 = DESIGN_CONTEXT ( 'detailed design', #239, 'design' ) ;
#11 = PERSON_AND_ORGANIZATION ( #218, #110 ) ;
#12 = CARTESIAN_POINT ( 'NONE',  ( 2.094888803305880013E-14, -8.673617379884035472E-16, 6.000000000000000000 ) ) ;
#13 = CALENDAR_DATE ( 2021, 1, 12 ) ;
#14 = FACE_OUTER_BOUND ( 'NONE', #59, .T. ) ;
#15 = CC_DESIGN_PERSON_AND_ORGANIZATION_ASSIGNMENT ( #271, #273, ( #145 ) ) ;
#16 = FACE_BOUND ( 'NONE', #258, .T. ) ;
#17 = MANIFOLD_SOLID_BREP ( 'Corps-Déplacer/Copier1[2]', #279 ) ;
#18 = COORDINATED_UNIVERSAL_TIME_OFFSET ( 1, 0, .AHEAD. ) ;
#19 = FACE_OUTER_BOUND ( 'NONE', #214, .T. ) ;
#20 = APPROVAL_ROLE ( '' ) ;
#21 = DIRECTION ( 'NONE',  ( 0.0000000000000000000, 1.000000000000000000, 0.0000000000000000000 ) ) ;
#22 = ADVANCED_FACE ( 'NONE', ( #101 ), #206, .F. ) ;
#23 =( NAMED_UNIT ( * ) SI_UNIT ( $, .STERADIAN. ) SOLID_ANGLE_UNIT ( ) );
#24 = LOCAL_TIME ( 8, 27, 31.00000000000000000, #91 ) ;
#25 = CARTESIAN_POINT ( 'NONE',  ( 4.561824529340828078E-14, 1.499999999999995559, 13.06558473788762065 ) ) ;
#26 = FACE_OUTER_BOUND ( 'NONE', #149, .T. ) ;
#27 = DIRECTION ( 'NONE',  ( 5.068236695755894748E-31, 1.000000000000000000, 1.426581805901982593E-16 ) ) ;
#28 = DIRECTION ( 'NONE',  ( -3.491481338843133355E-15, 1.224646799147353207E-16, -1.000000000000000000 ) ) ;
#29 = ADVANCED_FACE ( 'NONE', ( #124, #57 ), #263, .T. ) ;
#30 = AXIS2_PLACEMENT_3D ( 'NONE', #51, #117, #109 ) ;
#31 = DIRECTION ( 'NONE',  ( -3.491481338843133355E-15, 1.224646799147353207E-16, -1.000000000000000000 ) ) ;
#32 = DATE_AND_TIME ( #278, #269 ) ;
#33 = CC_DESIGN_PERSON_AND_ORGANIZATION_ASSIGNMENT ( #72, #93, ( #169 ) ) ;
#34 = EDGE_LOOP ( 'NONE', ( #81 ) ) ;
#35 = PERSON_AND_ORGANIZATION ( #218, #110 ) ;
#36 = CARTESIAN_POINT ( 'NONE',  ( 1.316288464743861212E-13, -4.616918432785521081E-15, 37.69999999999999574 ) ) ;
#37 = PERSON_AND_ORGANIZATION ( #218, #110 ) ;
#38 = CARTESIAN_POINT ( 'NONE',  ( -7.224653375233083448E-32, 2.534067283275211440E-33, -2.069222967013450522E-17 ) ) ;
#39 = APPLICATION_PROTOCOL_DEFINITION ( 'international standard', 'config_control_design', 1994, #239 ) ;
#40 = PLANE ( 'NONE',  #100 ) ;
#41 = ORIENTED_EDGE ( 'NONE', *, *, #137, .F. ) ;
#42 = ORIENTED_EDGE ( 'NONE', *, *, #126, .F. ) ;
#43 = MANIFOLD_SOLID_BREP ( 'Corps-Déplacer/Copier1[1]', #49 ) ;
#44 = APPROVAL_PERSON_ORGANIZATION ( #35, #184, #205 ) ;
#45 = DIRECTION ( 'NONE',  ( -3.491481338843133355E-15, 1.224646799147353207E-16, -1.000000000000000000 ) ) ;
#46 = DIRECTION ( 'NONE',  ( 4.275831445896958607E-31, 1.000000000000000000, 1.224646799147353454E-16 ) ) ;
#47 = VERTEX_POINT ( 'NONE', #151 ) ;
#48 = ADVANCED_BREP_SHAPE_REPRESENTATION ( '973253', ( #43, #17, #240 ), #243 ) ;
#49 = CLOSED_SHELL ( 'NONE', ( #22, #250, #216, #203, #195, #29, #268 ) ) ;
#50 = CARTESIAN_POINT ( 'NONE',  ( 1.326762908760390423E-13, 8.998558695971103225E-33, 38.00000000000000000 ) ) ;
#51 = CARTESIAN_POINT ( 'NONE',  ( 0.0000000000000000000, 0.0000000000000000000, 0.0000000000000000000 ) ) ;
#52 = APPROVAL ( #67, 'UNSPECIFIED' ) ;
#53 = CIRCLE ( 'NONE', #235, 0.3153844939755811594 ) ;
#54 = DIRECTION ( 'NONE',  ( -4.275831445896958607E-31, -1.000000000000000000, -1.224646799147353207E-16 ) ) ;
#55 = CARTESIAN_POINT ( 'NONE',  ( 1.326762908760390423E-13, -4.653657836759941941E-15, 38.00000000000000000 ) ) ;
#56 = DIRECTION ( 'NONE',  ( -5.068236695755894748E-31, -1.000000000000000000, -1.426581805901982593E-16 ) ) ;
#57 = FACE_BOUND ( 'NONE', #245, .T. ) ;
#58 = ORIENTED_EDGE ( 'NONE', *, *, #275, .F. ) ;
#59 = EDGE_LOOP ( 'NONE', ( #147 ) ) ;
#60 = EDGE_CURVE ( 'NONE', #62, #62, #193, .T. ) ;
#61 = AXIS2_PLACEMENT_3D ( 'NONE', #186, #276, #56 ) ;
#62 = VERTEX_POINT ( 'NONE', #87 ) ;
#63 = CC_DESIGN_PERSON_AND_ORGANIZATION_ASSIGNMENT ( #257, #141, ( #138 ) ) ;
#64 = VERTEX_POINT ( 'NONE', #159 ) ;
#65 = ORIENTED_EDGE ( 'NONE', *, *, #220, .F. ) ;
#66 = VERTEX_POINT ( 'NONE', #154 ) ;
#67 = APPROVAL_STATUS ( 'not_yet_approved' ) ;
#68 = AXIS2_PLACEMENT_3D ( 'NONE', #50, #92, #134 ) ;
#69 = CARTESIAN_POINT ( 'NONE',  ( 0.0000000000000000000, 0.0000000000000000000, 0.0000000000000000000 ) ) ;
#70 = FACE_OUTER_BOUND ( 'NONE', #212, .T. ) ;
#71 = DIRECTION ( 'NONE',  ( 3.491481338843133355E-15, -1.224646799147353207E-16, 1.000000000000000000 ) ) ;
#72 = PERSON_AND_ORGANIZATION ( #218, #110 ) ;
#73 = FACE_OUTER_BOUND ( 'NONE', #2, .T. ) ;
#74 = EDGE_CURVE ( 'NONE', #111, #111, #238, .T. ) ;
#75 = DIRECTION ( 'NONE',  ( -3.491481338843133355E-15, 1.224646799147353207E-16, -1.000000000000000000 ) ) ;
#76 = CARTESIAN_POINT ( 'NONE',  ( 1.396592535537253342E-14, 2.137157690293138401E-33, 4.000000000000000000 ) ) ;
#77 = COORDINATED_UNIVERSAL_TIME_OFFSET ( 1, 0, .AHEAD. ) ;
#78 = EDGE_LOOP ( 'NONE', ( #153 ) ) ;
#79 = CIRCLE ( 'NONE', #217, 0.2849999999999999756 ) ;
#80 = DIRECTION ( 'NONE',  ( 0.0000000000000000000, 0.0000000000000000000, 1.000000000000000000 ) ) ;
#81 = ORIENTED_EDGE ( 'NONE', *, *, #60, .F. ) ;
#82 = ADVANCED_FACE ( 'NONE', ( #73 ), #40, .F. ) ;
#83 = ADVANCED_FACE ( 'NONE', ( #281 ), #164, .T. ) ;
#84 = APPROVAL_PERSON_ORGANIZATION ( #11, #52, #183 ) ;
#85 = DIRECTION ( 'NONE',  ( 4.275831445896959482E-31, 1.000000000000000000, 1.224646799147353207E-16 ) ) ;
#86 = CARTESIAN_POINT ( 'NONE',  ( -4.731839565957903391E-32, 0.2272649730810376023, -1.355252715606880543E-17 ) ) ;
#87 = CARTESIAN_POINT ( 'NONE',  ( 1.396592535537253342E-14, 0.2849999999999993094, 4.000000000000000000 ) ) ;
#88 = PERSON_AND_ORGANIZATION ( #218, #110 ) ;
#89 = AXIS2_PLACEMENT_3D ( 'NONE', #9, #6, #200 ) ;
#90 = DIRECTION ( 'NONE',  ( 4.399776810672965927E-31, 1.000000000000000000, 1.224646799147353207E-16 ) ) ;
#91 = COORDINATED_UNIVERSAL_TIME_OFFSET ( 1, 0, .AHEAD. ) ;
#92 = DIRECTION ( 'NONE',  ( -3.491481338843133355E-15, 1.224646799147353207E-16, -1.000000000000000000 ) ) ;
#93 = PERSON_AND_ORGANIZATION_ROLE ( 'design_supplier' ) ;
#94 = CARTESIAN_POINT ( 'NONE',  ( 1.326762908760390423E-13, -4.653657836759941941E-15, 38.00000000000000000 ) ) ;
#95 = CALENDAR_DATE ( 2021, 1, 12 ) ;
#96 = CIRCLE ( 'NONE', #255, 1.500000000000003331 ) ;
#97 = DIRECTION ( 'NONE',  ( -4.275831445896958607E-31, -1.000000000000000000, -1.224646799147353207E-16 ) ) ;
#98 = APPROVAL ( #210, 'UNSPECIFIED' ) ;
#99 = CALENDAR_DATE ( 2021, 1, 12 ) ;
#100 = AXIS2_PLACEMENT_3D ( 'NONE', #38, #122, #211 ) ;
#101 = FACE_OUTER_BOUND ( 'NONE', #170, .T. ) ;
#102 = ORIENTED_EDGE ( 'NONE', *, *, #60, .T. ) ;
#103 = LOCAL_TIME ( 8, 27, 31.00000000000000000, #252 ) ;
#104 = DIRECTION ( 'NONE',  ( 1.000000000000000000, 0.0000000000000000000, 0.0000000000000000000 ) ) ;
#105 = CONICAL_SURFACE ( 'NONE', #89, 1.499999999999996891, 0.1745329251994260644 ) ;
#106 = EDGE_LOOP ( 'NONE', ( #58 ) ) ;
#107 = EDGE_CURVE ( 'NONE', #64, #64, #123, .T. ) ;
#108 = PRODUCT_DEFINITION ( 'UNKNOWN', '', #169, #10 ) ;
#109 = DIRECTION ( 'NONE',  ( 4.275831445896959482E-31, 1.000000000000000000, 1.224646799147353454E-16 ) ) ;
#110 = ORGANIZATION ( 'UNSPECIFIED', 'UNSPECIFIED', '' ) ;
#111 = VERTEX_POINT ( 'NONE', #86 ) ;
#112 = AXIS2_PLACEMENT_3D ( 'NONE', #259, #256, #139 ) ;
#113 = CYLINDRICAL_SURFACE ( 'NONE', #127, 0.2849999999999998646 ) ;
#114 = DATE_AND_TIME ( #178, #103 ) ;
#115 = CYLINDRICAL_SURFACE ( 'NONE', #30, 0.2849999999999995315 ) ;
#116 = CC_DESIGN_APPROVAL ( #184, ( #145 ) ) ;
#117 = DIRECTION ( 'NONE',  ( -3.491481338843133355E-15, 1.224646799147353207E-16, -1.000000000000000000 ) ) ;
#118 = ORIENTED_EDGE ( 'NONE', *, *, #220, .T. ) ;
#119 = APPROVAL_DATE_TIME ( #133, #52 ) ;
#120 = CC_DESIGN_DATE_AND_TIME_ASSIGNMENT ( #163, #140, ( #145 ) ) ;
#121 = DIRECTION ( 'NONE',  ( -3.491481338843133355E-15, 1.224646799147353207E-16, -1.000000000000000000 ) ) ;
#122 = DIRECTION ( 'NONE',  ( 3.491481338843133355E-15, -1.224646799147353207E-16, 1.000000000000000000 ) ) ;
#123 = CIRCLE ( 'NONE', #158, 1.200000000000003286 ) ;
#124 = FACE_OUTER_BOUND ( 'NONE', #125, .T. ) ;
#125 = EDGE_LOOP ( 'NONE', ( #41 ) ) ;
#126 = EDGE_CURVE ( 'NONE', #47, #47, #242, .T. ) ;
#127 = AXIS2_PLACEMENT_3D ( 'NONE', #131, #128, #46 ) ;
#128 = DIRECTION ( 'NONE',  ( -3.491481338843133355E-15, 1.224646799147353207E-16, -1.000000000000000000 ) ) ;
#129 = VERTEX_POINT ( 'NONE', #247 ) ;
#130 = PERSON_AND_ORGANIZATION_ROLE ( 'creator' ) ;
#131 = CARTESIAN_POINT ( 'NONE',  ( 0.0000000000000000000, 0.0000000000000000000, 0.0000000000000000000 ) ) ;
#132 = AXIS2_PLACEMENT_3D ( 'NONE', #76, #71, #54 ) ;
#133 = DATE_AND_TIME ( #95, #219 ) ;
#134 = DIRECTION ( 'NONE',  ( 4.275831445896958607E-31, 1.000000000000000000, 1.224646799147353207E-16 ) ) ;
#135 = FACE_OUTER_BOUND ( 'NONE', #199, .T. ) ;
#136 = SHAPE_DEFINITION_REPRESENTATION ( #236, #48 ) ;
#137 = EDGE_CURVE ( 'NONE', #179, #179, #96, .T. ) ;
#138 = PRODUCT ( '973253', '973253', '', ( #189 ) ) ;
#139 = DIRECTION ( 'NONE',  ( 0.0000000000000000000, 1.000000000000000000, 0.0000000000000000000 ) ) ;
#140 = DATE_TIME_ROLE ( 'classification_date' ) ;
#141 = PERSON_AND_ORGANIZATION_ROLE ( 'design_owner' ) ;
#142 = CARTESIAN_POINT ( 'NONE',  ( 1.396592535537253342E-14, -4.898587196589412829E-16, 4.000000000000000000 ) ) ;
#143 = ORIENTED_EDGE ( 'NONE', *, *, #275, .T. ) ;
#144 = CARTESIAN_POINT ( 'NONE',  ( 0.0000000000000000000, 0.0000000000000000000, 0.0000000000000000000 ) ) ;
#145 = SECURITY_CLASSIFICATION ( '', '', #230 ) ;
#146 = DIRECTION ( 'NONE',  ( 4.275831445896958607E-31, 1.000000000000000000, 1.224646799147352961E-16 ) ) ;
#147 = ORIENTED_EDGE ( 'NONE', *, *, #107, .F. ) ;
#148 = CC_DESIGN_APPROVAL ( #98, ( #108 ) ) ;
#149 = EDGE_LOOP ( 'NONE', ( #102 ) ) ;
#150 = CC_DESIGN_DATE_AND_TIME_ASSIGNMENT ( #114, #228, ( #108 ) ) ;
#151 = CARTESIAN_POINT ( 'NONE',  ( 1.396592535537253342E-14, 0.2849999999999993094, 4.000000000000000000 ) ) ;
#152 = CARTESIAN_POINT ( 'NONE',  ( 3.491481338843134834E-16, 0.2849999999999993650, 0.1000000000000000333 ) ) ;
#153 = ORIENTED_EDGE ( 'NONE', *, *, #231, .T. ) ;
#154 = CARTESIAN_POINT ( 'NONE',  ( 2.094888803305880013E-14, 0.2849999999999992539, 6.000000000000000000 ) ) ;
#155 = APPROVAL_STATUS ( 'not_yet_approved' ) ;
#156 = FACE_OUTER_BOUND ( 'NONE', #215, .T. ) ;
#157 = ORIENTED_EDGE ( 'NONE', *, *, #231, .F. ) ;
#158 = AXIS2_PLACEMENT_3D ( 'NONE', #55, #232, #254 ) ;
#159 = CARTESIAN_POINT ( 'NONE',  ( 1.326762908760390423E-13, 1.199999999999998845, 38.00000000000000000 ) ) ;
#160 = ADVANCED_FACE ( 'NONE', ( #19, #26 ), #115, .T. ) ;
#161 = CARTESIAN_POINT ( 'NONE',  ( -1.444930675046616690E-31, 5.068134566550422880E-33, -4.138445934026901043E-17 ) ) ;
#162 = PRODUCT_RELATED_PRODUCT_CATEGORY ( 'detail', '', ( #138 ) ) ;
#163 = DATE_AND_TIME ( #13, #24 ) ;
#164 = PLANE ( 'NONE',  #132 ) ;
#165 = ORIENTED_EDGE ( 'NONE', *, *, #126, .T. ) ;
#166 = ORIENTED_EDGE ( 'NONE', *, *, #107, .T. ) ;
#167 =( LENGTH_UNIT ( ) NAMED_UNIT ( * ) SI_UNIT ( .MILLI., .METRE. ) );
#168 = CARTESIAN_POINT ( 'NONE',  ( 1.396592535537253342E-14, 2.137157690293138401E-33, 4.000000000000000000 ) ) ;
#169 = PRODUCT_DEFINITION_FORMATION_WITH_SPECIFIED_SOURCE ( 'ANY', '', #138, .NOT_KNOWN. ) ;
#170 = EDGE_LOOP ( 'NONE', ( #165 ) ) ;
#171 = EDGE_LOOP ( 'NONE', ( #8 ) ) ;
#172 = EDGE_LOOP ( 'NONE', ( #143 ) ) ;
#173 = CIRCLE ( 'NONE', #175, 1.499999999999996891 ) ;
#174 = AXIS2_PLACEMENT_3D ( 'NONE', #142, #274, #233 ) ;
#175 = AXIS2_PLACEMENT_3D ( 'NONE', #251, #177, #197 ) ;
#176 = FACE_OUTER_BOUND ( 'NONE', #172, .T. ) ;
#177 = DIRECTION ( 'NONE',  ( -3.491481338843133355E-15, 1.224646799147353207E-16, -1.000000000000000000 ) ) ;
#178 = CALENDAR_DATE ( 2021, 1, 12 ) ;
#179 = VERTEX_POINT ( 'NONE', #244 ) ;
#180 = PERSON_AND_ORGANIZATION_ROLE ( 'creator' ) ;
#181 = CARTESIAN_POINT ( 'NONE',  ( 2.094888803305880013E-14, -7.347880794884119736E-16, 6.000000000000000000 ) ) ;
#182 = APPLICATION_CONTEXT ( 'configuration controlled 3d designs of mechanical parts and assemblies' ) ;
#183 = APPROVAL_ROLE ( '' ) ;
#184 = APPROVAL ( #155, 'UNSPECIFIED' ) ;
#185 = DIRECTION ( 'NONE',  ( 0.0000000000000000000, 1.000000000000000000, 0.0000000000000000000 ) ) ;
#186 = CARTESIAN_POINT ( 'NONE',  ( 3.491481338843133355E-16, -1.224646799147353115E-17, 0.09999999999999999167 ) ) ;
#187 = DATE_AND_TIME ( #99, #277 ) ;
#188 = DIRECTION ( 'NONE',  ( -3.491481338843133355E-15, 1.224646799147353207E-16, -1.000000000000000000 ) ) ;
#189 = MECHANICAL_CONTEXT ( 'NONE', #182, 'mechanical' ) ;
#190 = ORIENTED_EDGE ( 'NONE', *, *, #264, .F. ) ;
#191 = CC_DESIGN_PERSON_AND_ORGANIZATION_ASSIGNMENT ( #202, #130, ( #108 ) ) ;
#192 = AXIS2_PLACEMENT_3D ( 'NONE', #265, #226, #27 ) ;
#193 = CIRCLE ( 'NONE', #174, 0.2849999999999997535 ) ;
#194 = AXIS2_PLACEMENT_3D ( 'NONE', #69, #28, #85 ) ;
#195 = ADVANCED_FACE ( 'NONE', ( #135, #225 ), #270, .T. ) ;
#196 = FACE_OUTER_BOUND ( 'NONE', #78, .T. ) ;
#197 = DIRECTION ( 'NONE',  ( 0.0000000000000000000, 1.000000000000000000, 0.0000000000000000000 ) ) ;
#198 = CARTESIAN_POINT ( 'NONE',  ( 2.216146677675516085E-14, -7.773196164799256863E-16, 6.347296355333846840 ) ) ;
#199 = EDGE_LOOP ( 'NONE', ( #190 ) ) ;
#200 = DIRECTION ( 'NONE',  ( 0.0000000000000000000, -1.000000000000000000, 0.0000000000000000000 ) ) ;
#201 = CIRCLE ( 'NONE', #192, 0.2849999999999993650 ) ;
#202 = PERSON_AND_ORGANIZATION ( #218, #110 ) ;
#203 = ADVANCED_FACE ( 'NONE', ( #7, #204 ), #105, .T. ) ;
#204 = FACE_OUTER_BOUND ( 'NONE', #241, .T. ) ;
#205 = APPROVAL_ROLE ( '' ) ;
#206 = PLANE ( 'NONE',  #224 ) ;
#207 = APPROVAL_DATE_TIME ( #32, #184 ) ;
#208 = DIRECTION ( 'NONE',  ( 0.0000000000000000000, 1.000000000000000000, 0.0000000000000000000 ) ) ;
#209 = CC_DESIGN_APPROVAL ( #52, ( #169 ) ) ;
#210 = APPROVAL_STATUS ( 'not_yet_approved' ) ;
#211 = DIRECTION ( 'NONE',  ( -4.275831445896958607E-31, -1.000000000000000000, -1.224646799147353207E-16 ) ) ;
#212 = EDGE_LOOP ( 'NONE', ( #42 ) ) ;
#213 = AXIS2_PLACEMENT_3D ( 'NONE', #161, #75, #146 ) ;
#214 = EDGE_LOOP ( 'NONE', ( #65 ) ) ;
#215 = EDGE_LOOP ( 'NONE', ( #157 ) ) ;
#216 = ADVANCED_FACE ( 'NONE', ( #156, #176 ), #222, .F. ) ;
#217 = AXIS2_PLACEMENT_3D ( 'NONE', #181, #223, #272 ) ;
#218 = PERSON ( 'UNSPECIFIED', 'UNSPECIFIED', 'UNSPECIFIED', ('UNSPECIFIED'), ('UNSPECIFIED'), ('UNSPECIFIED') ) ;
#219 = LOCAL_TIME ( 8, 27, 31.00000000000000000, #18 ) ;
#220 = EDGE_CURVE ( 'NONE', #266, #266, #201, .T. ) ;
#221 = VERTEX_POINT ( 'NONE', #25 ) ;
#222 = TOROIDAL_SURFACE ( 'NONE', #227, 2.285000000000000142, 2.000000000000000000 ) ;
#223 = DIRECTION ( 'NONE',  ( -3.491481338843133355E-15, 1.224646799147353207E-16, -1.000000000000000000 ) ) ;
#224 = AXIS2_PLACEMENT_3D ( 'NONE', #168, #229, #97 ) ;
#225 = FACE_OUTER_BOUND ( 'NONE', #171, .T. ) ;
#226 = DIRECTION ( 'NONE',  ( -3.491481338843133355E-15, 1.224646799147353207E-16, -1.000000000000000000 ) ) ;
#227 = AXIS2_PLACEMENT_3D ( 'NONE', #12, #45, #90 ) ;
#228 = DATE_TIME_ROLE ( 'creation_date' ) ;
#229 = DIRECTION ( 'NONE',  ( 3.491481338843133355E-15, -1.224646799147353207E-16, 1.000000000000000000 ) ) ;
#230 = SECURITY_CLASSIFICATION_LEVEL ( 'unclassified' ) ;
#231 = EDGE_CURVE ( 'NONE', #66, #66, #79, .T. ) ;
#232 = DIRECTION ( 'NONE',  ( -3.491481338843133355E-15, 1.224646799147353207E-16, -1.000000000000000000 ) ) ;
#233 = DIRECTION ( 'NONE',  ( 0.0000000000000000000, 1.000000000000000000, 0.0000000000000000000 ) ) ;
#234 = EDGE_LOOP ( 'NONE', ( #118 ) ) ;
#235 = AXIS2_PLACEMENT_3D ( 'NONE', #198, #31, #185 ) ;
#236 = PRODUCT_DEFINITION_SHAPE ( 'NONE', 'NONE',  #108 ) ;
#237 = ORIENTED_EDGE ( 'NONE', *, *, #264, .T. ) ;
#238 = CIRCLE ( 'NONE', #213, 0.2272649730810376023 ) ;
#239 = APPLICATION_CONTEXT ( 'configuration controlled 3d designs of mechanical parts and assemblies' ) ;
#240 = AXIS2_PLACEMENT_3D ( 'NONE', #144, #80, #104 ) ;
#241 = EDGE_LOOP ( 'NONE', ( #237 ) ) ;
#242 = CIRCLE ( 'NONE', #112, 0.2849999999999997535 ) ;
#243 =( GEOMETRIC_REPRESENTATION_CONTEXT ( 3 ) GLOBAL_UNCERTAINTY_ASSIGNED_CONTEXT ( ( #1 ) ) GLOBAL_UNIT_ASSIGNED_CONTEXT ( ( #167, #282, #23 ) ) REPRESENTATION_CONTEXT ( 'NONE', 'WORKASPACE' ) );
#244 = CARTESIAN_POINT ( 'NONE',  ( 1.316288464743861212E-13, 1.499999999999998668, 37.69999999999999574 ) ) ;
#245 = EDGE_LOOP ( 'NONE', ( #166 ) ) ;
#246 = APPROVAL_PERSON_ORGANIZATION ( #37, #98, #20 ) ;
#247 = CARTESIAN_POINT ( 'NONE',  ( 2.216146677675516085E-14, 0.3153844939755804377, 6.347296355333846840 ) ) ;
#248 = COORDINATED_UNIVERSAL_TIME_OFFSET ( 1, 0, .AHEAD. ) ;
#249 = CONICAL_SURFACE ( 'NONE', #61, 0.2849999999999993650, 0.5235987755982929315 ) ;
#250 = ADVANCED_FACE ( 'NONE', ( #70, #196 ), #113, .T. ) ;
#251 = CARTESIAN_POINT ( 'NONE',  ( 4.561824529340828078E-14, -1.600072652824258416E-15, 13.06558473788762065 ) ) ;
#252 = COORDINATED_UNIVERSAL_TIME_OFFSET ( 1, 0, .AHEAD. ) ;
#253 = PLANE ( 'NONE',  #68 ) ;
#254 = DIRECTION ( 'NONE',  ( 0.0000000000000000000, 1.000000000000000000, 0.0000000000000000000 ) ) ;
#255 = AXIS2_PLACEMENT_3D ( 'NONE', #36, #121, #208 ) ;
#256 = DIRECTION ( 'NONE',  ( -3.491481338843133355E-15, 1.224646799147353207E-16, -1.000000000000000000 ) ) ;
#257 = PERSON_AND_ORGANIZATION ( #218, #110 ) ;
#258 = EDGE_LOOP ( 'NONE', ( #261 ) ) ;
#259 = CARTESIAN_POINT ( 'NONE',  ( 1.396592535537253342E-14, -4.898587196589412829E-16, 4.000000000000000000 ) ) ;
#260 = APPLICATION_PROTOCOL_DEFINITION ( 'international standard', 'config_control_design', 1994, #182 ) ;
#261 = ORIENTED_EDGE ( 'NONE', *, *, #74, .F. ) ;
#262 = ORIENTED_EDGE ( 'NONE', *, *, #74, .T. ) ;
#263 = CONICAL_SURFACE ( 'NONE', #4, 1.200000000000003286, 0.7853981633974453924 ) ;
#264 = EDGE_CURVE ( 'NONE', #221, #221, #173, .T. ) ;
#265 = CARTESIAN_POINT ( 'NONE',  ( 3.491481338843133355E-16, -1.224646799147353115E-17, 0.09999999999999999167 ) ) ;
#266 = VERTEX_POINT ( 'NONE', #152 ) ;
#267 = APPROVAL_DATE_TIME ( #187, #98 ) ;
#268 = ADVANCED_FACE ( 'NONE', ( #14 ), #253, .F. ) ;
#269 = LOCAL_TIME ( 8, 27, 31.00000000000000000, #248 ) ;
#270 = CYLINDRICAL_SURFACE ( 'NONE', #194, 1.500000000000000000 ) ;
#271 = PERSON_AND_ORGANIZATION ( #218, #110 ) ;
#272 = DIRECTION ( 'NONE',  ( 0.0000000000000000000, 1.000000000000000000, 0.0000000000000000000 ) ) ;
#273 = PERSON_AND_ORGANIZATION_ROLE ( 'classification_officer' ) ;
#274 = DIRECTION ( 'NONE',  ( -3.491481338843133355E-15, 1.224646799147353207E-16, -1.000000000000000000 ) ) ;
#275 = EDGE_CURVE ( 'NONE', #129, #129, #53, .T. ) ;
#276 = DIRECTION ( 'NONE',  ( 3.491481338843133355E-15, -1.224646799147353207E-16, 1.000000000000000000 ) ) ;
#277 = LOCAL_TIME ( 8, 27, 31.00000000000000000, #77 ) ;
#278 = CALENDAR_DATE ( 2021, 1, 12 ) ;
#279 = CLOSED_SHELL ( 'NONE', ( #82, #3, #160, #83 ) ) ;
#280 = FACE_OUTER_BOUND ( 'NONE', #234, .T. ) ;
#281 = FACE_OUTER_BOUND ( 'NONE', #34, .T. ) ;
#282 =( NAMED_UNIT ( * ) PLANE_ANGLE_UNIT ( ) SI_UNIT ( $, .RADIAN. ) );
#283 = CC_DESIGN_SECURITY_CLASSIFICATION ( #145, ( #169 ) ) ;
ENDSEC;
END-ISO-10303-21;
