ISO-10303-21;
HEADER;
FILE_DESCRIPTION (( 'STEP AP203' ),
    '1' );
FILE_NAME ('972720.step',
    '2021-12-01T14:04:29',
    ( '' ),
    ( '' ),
    'SwSTEP 2.0',
    'SolidWorks 2019',
    '' );
FILE_SCHEMA (( 'CONFIG_CONTROL_DESIGN' ));
ENDSEC;

DATA;
#1 = DIRECTION ( 'NONE',  ( 4.141784826639222953E-31, 1.000000000000000000, 1.165808787618823679E-16 ) ) ;
#2 = AXIS2_PLACEMENT_3D ( 'NONE', #144, #9, #55 ) ;
#3 = CARTESIAN_POINT ( 'NONE',  ( 5.935518276033326704E-14, -2.168404344971008868E-15, 17.00000000000000000 ) ) ;
#4 = CARTESIAN_POINT ( 'NONE',  ( 7.323289984160144057E-14, 1.499999999999994005, 20.97473614619587678 ) ) ;
#5 = PRODUCT ( '972720', '972720', '', ( #113 ) ) ;
#6 = ADVANCED_FACE ( 'NONE', ( #23, #230 ), #283, .T. ) ;
#7 = DIRECTION ( 'NONE',  ( -4.141784826639222953E-31, -1.000000000000000000, -1.165808787618823679E-16 ) ) ;
#8 = CIRCLE ( 'NONE', #123, 1.499999999999996669 ) ;
#9 = DIRECTION ( 'NONE',  ( -3.491481338843133355E-15, 1.224646799147353207E-16, -1.000000000000000000 ) ) ;
#10 = LOCAL_TIME ( 15, 4, 29.00000000000000000, #135 ) ;
#11 = CARTESIAN_POINT ( 'NONE',  ( 2.853659301800060557E-14, -1.000928944092382464E-15, 8.173205080756902774 ) ) ;
#12 = VERTEX_POINT ( 'NONE', #30 ) ;
#13 = CALENDAR_DATE ( 2021, 1, 12 ) ;
#14 = AXIS2_PLACEMENT_3D ( 'NONE', #34, #218, #215 ) ;
#15 = APPROVAL_ROLE ( '' ) ;
#16 = ADVANCED_FACE ( 'NONE', ( #207, #66 ), #121, .T. ) ;
#17 = APPROVAL_DATE_TIME ( #272, #134 ) ;
#18 = PERSON_AND_ORGANIZATION_ROLE ( 'design_supplier' ) ;
#19 = EDGE_LOOP ( 'NONE', ( #158 ) ) ;
#20 = CC_DESIGN_APPROVAL ( #134, ( #122 ) ) ;
#21 = CC_DESIGN_APPROVAL ( #68, ( #75 ) ) ;
#22 = FACE_OUTER_BOUND ( 'NONE', #19, .T. ) ;
#23 = FACE_OUTER_BOUND ( 'NONE', #60, .T. ) ;
#24 = AXIS2_PLACEMENT_3D ( 'NONE', #50, #128, #285 ) ;
#25 = FACE_OUTER_BOUND ( 'NONE', #64, .T. ) ;
#26 = EDGE_CURVE ( 'NONE', #12, #12, #262, .T. ) ;
#27 = EDGE_LOOP ( 'NONE', ( #182 ) ) ;
#28 = CARTESIAN_POINT ( 'NONE',  ( 0.0000000000000000000, 0.0000000000000000000, 0.0000000000000000000 ) ) ;
#29 = AXIS2_PLACEMENT_3D ( 'NONE', #151, #124, #7 ) ;
#30 = CARTESIAN_POINT ( 'NONE',  ( 1.735266225405037467E-13, 1.499999999999995559, 49.70000000000000284 ) ) ;
#31 = CC_DESIGN_PERSON_AND_ORGANIZATION_ASSIGNMENT ( #86, #57, ( #5 ) ) ;
#32 = DIRECTION ( 'NONE',  ( -3.491481338843133355E-15, 1.224646799147353207E-16, -1.000000000000000000 ) ) ;
#33 = DIRECTION ( 'NONE',  ( -3.491481338843133355E-15, 1.224646799147353207E-16, -1.000000000000000000 ) ) ;
#34 = CARTESIAN_POINT ( 'NONE',  ( 6.056776150402961829E-14, -2.124431095542013598E-15, 17.34729635533384240 ) ) ;
#35 = LOCAL_TIME ( 15, 4, 29.00000000000000000, #205 ) ;
#36 = VERTEX_POINT ( 'NONE', #4 ) ;
#37 = APPLICATION_PROTOCOL_DEFINITION ( 'international standard', 'config_control_design', 1994, #79 ) ;
#38 = EDGE_LOOP ( 'NONE', ( #94 ) ) ;
#39 = PERSON_AND_ORGANIZATION ( #112, #222 ) ;
#40 = APPROVAL_PERSON_ORGANIZATION ( #39, #134, #15 ) ;
#41 = ADVANCED_FACE ( 'NONE', ( #96, #162 ), #226, .F. ) ;
#42 =( NAMED_UNIT ( * ) PLANE_ANGLE_UNIT ( ) SI_UNIT ( $, .RADIAN. ) );
#43 = CIRCLE ( 'NONE', #136, 0.9299999999999987166 ) ;
#44 = DIRECTION ( 'NONE',  ( 4.275831445896958607E-31, 1.000000000000000000, 1.224646799147353454E-16 ) ) ;
#45 = EDGE_LOOP ( 'NONE', ( #99 ) ) ;
#46 = FACE_OUTER_BOUND ( 'NONE', #292, .T. ) ;
#47 = ADVANCED_FACE ( 'NONE', ( #25, #279 ), #212, .T. ) ;
#48 = DIRECTION ( 'NONE',  ( 0.0000000000000000000, 1.000000000000000000, 0.0000000000000000000 ) ) ;
#49 = EDGE_LOOP ( 'NONE', ( #108 ) ) ;
#50 = CARTESIAN_POINT ( 'NONE',  ( 7.323289984160144057E-14, -2.568664348439906685E-15, 20.97473614619587678 ) ) ;
#51 = DIRECTION ( 'NONE',  ( 0.0000000000000000000, 1.000000000000000000, 0.0000000000000000000 ) ) ;
#52 = DIRECTION ( 'NONE',  ( -3.491481338843133355E-15, 1.224646799147353207E-16, -1.000000000000000000 ) ) ;
#53 = DIRECTION ( 'NONE',  ( 0.0000000000000000000, 1.000000000000000000, 0.0000000000000000000 ) ) ;
#54 = AXIS2_PLACEMENT_3D ( 'NONE', #229, #206, #120 ) ;
#55 = DIRECTION ( 'NONE',  ( 4.275831445896958607E-31, 1.000000000000000000, 1.224646799147353207E-16 ) ) ;
#56 = APPROVAL_PERSON_ORGANIZATION ( #180, #68, #92 ) ;
#57 = PERSON_AND_ORGANIZATION_ROLE ( 'design_owner' ) ;
#58 = DIRECTION ( 'NONE',  ( 1.000000000000000000, 0.0000000000000000000, 0.0000000000000000000 ) ) ;
#59 = LOCAL_TIME ( 15, 4, 29.00000000000000000, #293 ) ;
#60 = EDGE_LOOP ( 'NONE', ( #142 ) ) ;
#61 = APPROVAL_STATUS ( 'not_yet_approved' ) ;
#62 = DATE_AND_TIME ( #243, #145 ) ;
#63 = CALENDAR_DATE ( 2021, 1, 12 ) ;
#64 = EDGE_LOOP ( 'NONE', ( #258 ) ) ;
#65 = CIRCLE ( 'NONE', #217, 1.200000000000001732 ) ;
#66 = FACE_OUTER_BOUND ( 'NONE', #299, .T. ) ;
#67 = ORIENTED_EDGE ( 'NONE', *, *, #104, .F. ) ;
#68 = APPROVAL ( #227, 'UNSPECIFIED' ) ;
#69 = DIRECTION ( 'NONE',  ( -3.491481338843133355E-15, 1.224646799147353207E-16, -1.000000000000000000 ) ) ;
#70 = AXIS2_PLACEMENT_3D ( 'NONE', #140, #278, #185 ) ;
#71 = PLANE ( 'NONE',  #294 ) ;
#72 = ADVANCED_FACE ( 'NONE', ( #46 ), #183, .F. ) ;
#73 = VERTEX_POINT ( 'NONE', #284 ) ;
#74 = DIRECTION ( 'NONE',  ( 0.0000000000000000000, 1.000000000000000000, 0.0000000000000000000 ) ) ;
#75 = SECURITY_CLASSIFICATION ( '', '', #203 ) ;
#76 = DIRECTION ( 'NONE',  ( 4.275831445896958607E-31, 1.000000000000000000, 1.224646799147352961E-16 ) ) ;
#77 = FACE_OUTER_BOUND ( 'NONE', #250, .T. ) ;
#78 = EDGE_CURVE ( 'NONE', #193, #193, #173, .T. ) ;
#79 = APPLICATION_CONTEXT ( 'configuration controlled 3d designs of mechanical parts and assemblies' ) ;
#80 = CARTESIAN_POINT ( 'NONE',  ( -1.892735826383161794E-31, 0.7856624327025945043, -5.421010862427523403E-17 ) ) ;
#81 = CIRCLE ( 'NONE', #246, 0.9299999999999997158 ) ;
#82 = COORDINATED_UNIVERSAL_TIME_OFFSET ( 1, 0, .AHEAD. ) ;
#83 = ADVANCED_FACE ( 'NONE', ( #22, #117 ), #281, .T. ) ;
#84 = PERSON_AND_ORGANIZATION ( #112, #222 ) ;
#85 = EDGE_LOOP ( 'NONE', ( #67 ) ) ;
#86 = PERSON_AND_ORGANIZATION ( #112, #222 ) ;
#87 = CARTESIAN_POINT ( 'NONE',  ( 1.745740669421566678E-13, 1.199999999999995515, 50.00000000000000000 ) ) ;
#88 = CIRCLE ( 'NONE', #271, 0.8299999999999934097 ) ;
#89 = DATE_TIME_ROLE ( 'classification_date' ) ;
#90 = ORIENTED_EDGE ( 'NONE', *, *, #130, .F. ) ;
#91 = MANIFOLD_SOLID_BREP ( 'Corps-Déplacer/Copier1[2]', #177 ) ;
#92 = APPROVAL_ROLE ( '' ) ;
#93 = EDGE_LOOP ( 'NONE', ( #298 ) ) ;
#94 = ORIENTED_EDGE ( 'NONE', *, *, #228, .T. ) ;
#95 = AXIS2_PLACEMENT_3D ( 'NONE', #137, #209, #255 ) ;
#96 = FACE_OUTER_BOUND ( 'NONE', #161, .T. ) ;
#97 = EDGE_LOOP ( 'NONE', ( #188 ) ) ;
#98 = FACE_OUTER_BOUND ( 'NONE', #204, .T. ) ;
#99 = ORIENTED_EDGE ( 'NONE', *, *, #104, .T. ) ;
#100 = CARTESIAN_POINT ( 'NONE',  ( 0.0000000000000000000, 0.0000000000000000000, 0.0000000000000000000 ) ) ;
#101 = DIRECTION ( 'NONE',  ( -3.491481338843133355E-15, 1.224646799147353207E-16, -1.000000000000000000 ) ) ;
#102 = AXIS2_PLACEMENT_3D ( 'NONE', #3, #143, #163 ) ;
#103 = CARTESIAN_POINT ( 'NONE',  ( 1.745740669421566678E-13, 8.998558695971067645E-33, 50.00000000000000000 ) ) ;
#104 = EDGE_CURVE ( 'NONE', #195, #195, #43, .T. ) ;
#105 = DIRECTION ( 'NONE',  ( -3.491481338843133355E-15, 1.224646799147353207E-16, -1.000000000000000000 ) ) ;
#106 = PLANE ( 'NONE',  #202 ) ;
#107 = CC_DESIGN_PERSON_AND_ORGANIZATION_ASSIGNMENT ( #221, #273, ( #75 ) ) ;
#108 = ORIENTED_EDGE ( 'NONE', *, *, #130, .T. ) ;
#109 = DATE_AND_TIME ( #200, #10 ) ;
#110 = APPLICATION_PROTOCOL_DEFINITION ( 'international standard', 'config_control_design', 1994, #257 ) ;
#111 = ORIENTED_EDGE ( 'NONE', *, *, #264, .F. ) ;
#112 = PERSON ( 'UNSPECIFIED', 'UNSPECIFIED', 'UNSPECIFIED', ('UNSPECIFIED'), ('UNSPECIFIED'), ('UNSPECIFIED') ) ;
#113 = MECHANICAL_CONTEXT ( 'NONE', #257, 'mechanical' ) ;
#114 = CIRCLE ( 'NONE', #14, 0.8603844939755749266 ) ;
#115 = ORIENTED_EDGE ( 'NONE', *, *, #219, .T. ) ;
#116 = CARTESIAN_POINT ( 'NONE',  ( 0.0000000000000000000, 0.0000000000000000000, 0.0000000000000000000 ) ) ;
#117 = FACE_BOUND ( 'NONE', #296, .T. ) ;
#118 = EDGE_LOOP ( 'NONE', ( #90 ) ) ;
#119 = AXIS2_PLACEMENT_3D ( 'NONE', #280, #235, #44 ) ;
#120 = DIRECTION ( 'NONE',  ( 0.0000000000000000000, 1.000000000000000000, 0.0000000000000000000 ) ) ;
#121 = CYLINDRICAL_SURFACE ( 'NONE', #256, 0.9299999999999991607 ) ;
#122 = PRODUCT_DEFINITION ( 'UNKNOWN', '', #132, #303 ) ;
#123 = AXIS2_PLACEMENT_3D ( 'NONE', #149, #125, #53 ) ;
#124 = DIRECTION ( 'NONE',  ( 3.491481338843133355E-15, -1.224646799147353207E-16, 1.000000000000000000 ) ) ;
#125 = DIRECTION ( 'NONE',  ( -3.491481338843133355E-15, 1.224646799147353207E-16, -1.000000000000000000 ) ) ;
#126 = ADVANCED_FACE ( 'NONE', ( #98 ), #71, .F. ) ;
#127 = CARTESIAN_POINT ( 'NONE',  ( 2.853659301800060557E-14, 0.8299999999999924105, 8.173205080756902774 ) ) ;
#128 = DIRECTION ( 'NONE',  ( 3.491481338843133355E-15, -1.224646799147353207E-16, 1.000000000000000000 ) ) ;
#129 = CARTESIAN_POINT ( 'NONE',  ( 5.935518276033326704E-14, -2.081899558550500280E-15, 17.00000000000000000 ) ) ;
#130 = EDGE_CURVE ( 'NONE', #261, #261, #88, .T. ) ;
#131 = PERSON_AND_ORGANIZATION ( #112, #222 ) ;
#132 = PRODUCT_DEFINITION_FORMATION_WITH_SPECIFIED_SOURCE ( 'ANY', '', #5, .NOT_KNOWN. ) ;
#133 = COORDINATED_UNIVERSAL_TIME_OFFSET ( 1, 0, .AHEAD. ) ;
#134 = APPROVAL ( #179, 'UNSPECIFIED' ) ;
#135 = COORDINATED_UNIVERSAL_TIME_OFFSET ( 1, 0, .AHEAD. ) ;
#136 = AXIS2_PLACEMENT_3D ( 'NONE', #164, #69, #1 ) ;
#137 = CARTESIAN_POINT ( 'NONE',  ( 2.853659301800060557E-14, -1.000928944092382464E-15, 8.173205080756902774 ) ) ;
#138 = ADVANCED_FACE ( 'NONE', ( #260, #238 ), #165, .T. ) ;
#139 = ORIENTED_EDGE ( 'NONE', *, *, #248, .T. ) ;
#140 = CARTESIAN_POINT ( 'NONE',  ( 2.793185071074506684E-14, 6.973882989377620360E-33, 8.000000000000000000 ) ) ;
#141 = CIRCLE ( 'NONE', #2, 0.7856624327025945043 ) ;
#142 = ORIENTED_EDGE ( 'NONE', *, *, #219, .F. ) ;
#143 = DIRECTION ( 'NONE',  ( -3.491481338843133355E-15, 1.224646799147353207E-16, -1.000000000000000000 ) ) ;
#144 = CARTESIAN_POINT ( 'NONE',  ( -5.252095961992818349E-31, 1.842187279397119453E-32, -1.504260069662307431E-16 ) ) ;
#145 = LOCAL_TIME ( 15, 4, 29.00000000000000000, #133 ) ;
#146 = CYLINDRICAL_SURFACE ( 'NONE', #196, 0.8299999999999938538 ) ;
#147 = APPROVAL ( #61, 'UNSPECIFIED' ) ;
#148 = DIRECTION ( 'NONE',  ( 0.0000000000000000000, 1.000000000000000000, 0.0000000000000000000 ) ) ;
#149 = CARTESIAN_POINT ( 'NONE',  ( 7.323289984160144057E-14, -2.568664348439906685E-15, 20.97473614619587678 ) ) ;
#150 = CIRCLE ( 'NONE', #300, 0.8299999999999942979 ) ;
#151 = CARTESIAN_POINT ( 'NONE',  ( 8.728703347107829444E-16, -3.061616997868381785E-17, 0.2499999999999998890 ) ) ;
#152 = CALENDAR_DATE ( 2021, 1, 12 ) ;
#153 = CARTESIAN_POINT ( 'NONE',  ( 5.935518276033326704E-14, 0.8299999999999921885, 17.00000000000000000 ) ) ;
#154 =( GEOMETRIC_REPRESENTATION_CONTEXT ( 3 ) GLOBAL_UNCERTAINTY_ASSIGNED_CONTEXT ( ( #210 ) ) GLOBAL_UNIT_ASSIGNED_CONTEXT ( ( #199, #42, #269 ) ) REPRESENTATION_CONTEXT ( 'NONE', 'WORKASPACE' ) );
#155 = DATE_TIME_ROLE ( 'creation_date' ) ;
#156 = EDGE_CURVE ( 'NONE', #286, #286, #141, .T. ) ;
#157 = PERSON_AND_ORGANIZATION ( #112, #222 ) ;
#158 = ORIENTED_EDGE ( 'NONE', *, *, #26, .F. ) ;
#159 = CONICAL_SURFACE ( 'NONE', #29, 0.9299999999999987166, 0.5235987755982922653 ) ;
#160 = EDGE_CURVE ( 'NONE', #214, #214, #81, .T. ) ;
#161 = EDGE_LOOP ( 'NONE', ( #111 ) ) ;
#162 = FACE_OUTER_BOUND ( 'NONE', #38, .T. ) ;
#163 = DIRECTION ( 'NONE',  ( 4.275831445896958607E-31, 1.000000000000000000, 1.224646799147353207E-16 ) ) ;
#164 = CARTESIAN_POINT ( 'NONE',  ( 8.728703347107829444E-16, -3.061616997868381785E-17, 0.2499999999999998890 ) ) ;
#165 = CONICAL_SURFACE ( 'NONE', #24, 1.499999999999996669, 0.1745329251994259812 ) ;
#166 = CARTESIAN_POINT ( 'NONE',  ( -2.626047980996409175E-31, 9.210936396985597264E-33, -7.521300348311537154E-17 ) ) ;
#167 = DIRECTION ( 'NONE',  ( 0.0000000000000000000, 1.000000000000000000, 0.0000000000000000000 ) ) ;
#168 = CARTESIAN_POINT ( 'NONE',  ( 2.793185071074506684E-14, 0.9299999999999987166, 8.000000000000000000 ) ) ;
#169 = APPROVAL_PERSON_ORGANIZATION ( #84, #147, #295 ) ;
#170 = DIRECTION ( 'NONE',  ( -4.275831445896958607E-31, -1.000000000000000000, -1.224646799147353207E-16 ) ) ;
#171 = DIRECTION ( 'NONE',  ( 4.275831445896958607E-31, 1.000000000000000000, 1.224646799147353207E-16 ) ) ;
#172 = FACE_OUTER_BOUND ( 'NONE', #45, .T. ) ;
#173 = CIRCLE ( 'NONE', #54, 0.9299999999999997158 ) ;
#174 = CC_DESIGN_PERSON_AND_ORGANIZATION_ASSIGNMENT ( #131, #249, ( #132 ) ) ;
#175 = PERSON_AND_ORGANIZATION ( #112, #222 ) ;
#176 = EDGE_LOOP ( 'NONE', ( #211 ) ) ;
#177 = CLOSED_SHELL ( 'NONE', ( #126, #231, #16, #268 ) ) ;
#178 = CC_DESIGN_SECURITY_CLASSIFICATION ( #75, ( #132 ) ) ;
#179 = APPROVAL_STATUS ( 'not_yet_approved' ) ;
#180 = PERSON_AND_ORGANIZATION ( #112, #222 ) ;
#181 = DATE_AND_TIME ( #63, #35 ) ;
#182 = ORIENTED_EDGE ( 'NONE', *, *, #156, .F. ) ;
#183 = PLANE ( 'NONE',  #70 ) ;
#184 = DIRECTION ( 'NONE',  ( -3.491481338843133355E-15, 1.224646799147353207E-16, -1.000000000000000000 ) ) ;
#185 = DIRECTION ( 'NONE',  ( -4.275831445896958607E-31, -1.000000000000000000, -1.224646799147353207E-16 ) ) ;
#186 = CARTESIAN_POINT ( 'NONE',  ( 1.735266225405037467E-13, -6.086494591762345225E-15, 49.70000000000000284 ) ) ;
#187 = CC_DESIGN_APPROVAL ( #147, ( #132 ) ) ;
#188 = ORIENTED_EDGE ( 'NONE', *, *, #26, .T. ) ;
#189 = ADVANCED_FACE ( 'NONE', ( #265, #77 ), #146, .T. ) ;
#190 = DIRECTION ( 'NONE',  ( -4.275831445896958607E-31, -1.000000000000000000, -1.224646799147353207E-16 ) ) ;
#191 = DIRECTION ( 'NONE',  ( 3.491481338843133355E-15, -1.224646799147353207E-16, 1.000000000000000000 ) ) ;
#192 = FACE_BOUND ( 'NONE', #27, .T. ) ;
#193 = VERTEX_POINT ( 'NONE', #168 ) ;
#194 = ADVANCED_FACE ( 'NONE', ( #236 ), #263, .F. ) ;
#195 = VERTEX_POINT ( 'NONE', #289 ) ;
#196 = AXIS2_PLACEMENT_3D ( 'NONE', #100, #33, #76 ) ;
#197 = VERTEX_POINT ( 'NONE', #153 ) ;
#198 = EDGE_LOOP ( 'NONE', ( #201 ) ) ;
#199 =( LENGTH_UNIT ( ) NAMED_UNIT ( * ) SI_UNIT ( .MILLI., .METRE. ) );
#200 = CALENDAR_DATE ( 2021, 1, 12 ) ;
#201 = ORIENTED_EDGE ( 'NONE', *, *, #78, .F. ) ;
#202 = AXIS2_PLACEMENT_3D ( 'NONE', #216, #191, #190 ) ;
#203 = SECURITY_CLASSIFICATION_LEVEL ( 'unclassified' ) ;
#204 = EDGE_LOOP ( 'NONE', ( #225 ) ) ;
#205 = COORDINATED_UNIVERSAL_TIME_OFFSET ( 1, 0, .AHEAD. ) ;
#206 = DIRECTION ( 'NONE',  ( -3.491481338843133355E-15, 1.224646799147353207E-16, -1.000000000000000000 ) ) ;
#207 = FACE_OUTER_BOUND ( 'NONE', #85, .T. ) ;
#208 = DIRECTION ( 'NONE',  ( -3.491481338843133355E-15, 1.224646799147353207E-16, -1.000000000000000000 ) ) ;
#209 = DIRECTION ( 'NONE',  ( -3.491481338843133355E-15, 1.224646799147353207E-16, -1.000000000000000000 ) ) ;
#210 = UNCERTAINTY_MEASURE_WITH_UNIT (LENGTH_MEASURE( 1.000000000000000082E-05 ), #199, 'distance_accuracy_value', 'NONE');
#211 = ORIENTED_EDGE ( 'NONE', *, *, #228, .F. ) ;
#212 = CONICAL_SURFACE ( 'NONE', #95, 0.8299999999999934097, 0.5235987755982903780 ) ;
#213 = PRODUCT_RELATED_PRODUCT_CATEGORY ( 'detail', '', ( #5 ) ) ;
#214 = VERTEX_POINT ( 'NONE', #266 ) ;
#215 = DIRECTION ( 'NONE',  ( 0.0000000000000000000, 1.000000000000000000, 0.0000000000000000000 ) ) ;
#216 = CARTESIAN_POINT ( 'NONE',  ( 2.793185071074506684E-14, 6.973882989377620360E-33, 8.000000000000000000 ) ) ;
#217 = AXIS2_PLACEMENT_3D ( 'NONE', #242, #105, #148 ) ;
#218 = DIRECTION ( 'NONE',  ( -3.491481338843133355E-15, 1.224646799147353207E-16, -1.000000000000000000 ) ) ;
#219 = EDGE_CURVE ( 'NONE', #36, #36, #8, .T. ) ;
#220 = DIRECTION ( 'NONE',  ( -3.491481338843133355E-15, 1.224646799147353207E-16, -1.000000000000000000 ) ) ;
#221 = PERSON_AND_ORGANIZATION ( #112, #222 ) ;
#222 = ORGANIZATION ( 'UNSPECIFIED', 'UNSPECIFIED', '' ) ;
#223 = DIRECTION ( 'NONE',  ( 0.0000000000000000000, 0.0000000000000000000, 1.000000000000000000 ) ) ;
#224 = APPROVAL_DATE_TIME ( #109, #147 ) ;
#225 = ORIENTED_EDGE ( 'NONE', *, *, #156, .T. ) ;
#226 = TOROIDAL_SURFACE ( 'NONE', #102, 2.829999999999994298, 2.000000000000000000 ) ;
#227 = APPROVAL_STATUS ( 'not_yet_approved' ) ;
#228 = EDGE_CURVE ( 'NONE', #73, #73, #114, .T. ) ;
#229 = CARTESIAN_POINT ( 'NONE',  ( 2.793185071074506684E-14, -9.797174393178825657E-16, 8.000000000000000000 ) ) ;
#230 = FACE_OUTER_BOUND ( 'NONE', #97, .T. ) ;
#231 = ADVANCED_FACE ( 'NONE', ( #192, #172 ), #159, .T. ) ;
#232 = CLOSED_SHELL ( 'NONE', ( #72, #47, #189, #41, #138, #6, #83, #194 ) ) ;
#233 = DIRECTION ( 'NONE',  ( 4.275831445896958607E-31, 1.000000000000000000, 1.224646799147353207E-16 ) ) ;
#234 = DIRECTION ( 'NONE',  ( -3.491481338843133355E-15, 1.224646799147353207E-16, -1.000000000000000000 ) ) ;
#235 = DIRECTION ( 'NONE',  ( -3.491481338843133355E-15, 1.224646799147353207E-16, -1.000000000000000000 ) ) ;
#236 = FACE_OUTER_BOUND ( 'NONE', #93, .T. ) ;
#237 = AXIS2_PLACEMENT_3D ( 'NONE', #116, #223, #58 ) ;
#238 = FACE_OUTER_BOUND ( 'NONE', #282, .T. ) ;
#239 = FACE_OUTER_BOUND ( 'NONE', #198, .T. ) ;
#240 = CARTESIAN_POINT ( 'NONE',  ( 2.793185071074506684E-14, -9.797174393178825657E-16, 8.000000000000000000 ) ) ;
#241 = AXIS2_PLACEMENT_3D ( 'NONE', #253, #208, #301 ) ;
#242 = CARTESIAN_POINT ( 'NONE',  ( 1.745740669421566678E-13, -6.123233995736766085E-15, 50.00000000000000000 ) ) ;
#243 = CALENDAR_DATE ( 2021, 1, 12 ) ;
#244 = ORIENTED_EDGE ( 'NONE', *, *, #264, .T. ) ;
#245 = CC_DESIGN_PERSON_AND_ORGANIZATION_ASSIGNMENT ( #175, #270, ( #122 ) ) ;
#246 = AXIS2_PLACEMENT_3D ( 'NONE', #240, #220, #51 ) ;
#247 = DATE_AND_TIME ( #13, #59 ) ;
#248 = EDGE_CURVE ( 'NONE', #291, #291, #65, .T. ) ;
#249 = PERSON_AND_ORGANIZATION_ROLE ( 'creator' ) ;
#250 = EDGE_LOOP ( 'NONE', ( #244 ) ) ;
#251 = AXIS2_PLACEMENT_3D ( 'NONE', #103, #32, #171 ) ;
#252 = ORIENTED_EDGE ( 'NONE', *, *, #160, .T. ) ;
#253 = CARTESIAN_POINT ( 'NONE',  ( 1.745740669421566678E-13, -6.123233995736766085E-15, 50.00000000000000000 ) ) ;
#254 = CC_DESIGN_PERSON_AND_ORGANIZATION_ASSIGNMENT ( #157, #18, ( #132 ) ) ;
#255 = DIRECTION ( 'NONE',  ( 0.0000000000000000000, 1.000000000000000000, 0.0000000000000000000 ) ) ;
#256 = AXIS2_PLACEMENT_3D ( 'NONE', #28, #234, #233 ) ;
#257 = APPLICATION_CONTEXT ( 'configuration controlled 3d designs of mechanical parts and assemblies' ) ;
#258 = ORIENTED_EDGE ( 'NONE', *, *, #160, .F. ) ;
#259 = DIRECTION ( 'NONE',  ( 3.491481338843133355E-15, -1.224646799147353207E-16, 1.000000000000000000 ) ) ;
#260 = FACE_BOUND ( 'NONE', #176, .T. ) ;
#261 = VERTEX_POINT ( 'NONE', #127 ) ;
#262 = CIRCLE ( 'NONE', #267, 1.500000000000001554 ) ;
#263 = PLANE ( 'NONE',  #251 ) ;
#264 = EDGE_CURVE ( 'NONE', #197, #197, #150, .T. ) ;
#265 = FACE_OUTER_BOUND ( 'NONE', #118, .T. ) ;
#266 = CARTESIAN_POINT ( 'NONE',  ( 2.793185071074506684E-14, 0.9299999999999987166, 8.000000000000000000 ) ) ;
#267 = AXIS2_PLACEMENT_3D ( 'NONE', #186, #184, #48 ) ;
#268 = ADVANCED_FACE ( 'NONE', ( #239 ), #106, .T. ) ;
#269 =( NAMED_UNIT ( * ) SI_UNIT ( $, .STERADIAN. ) SOLID_ANGLE_UNIT ( ) );
#270 = PERSON_AND_ORGANIZATION_ROLE ( 'creator' ) ;
#271 = AXIS2_PLACEMENT_3D ( 'NONE', #11, #52, #74 ) ;
#272 = DATE_AND_TIME ( #152, #276 ) ;
#273 = PERSON_AND_ORGANIZATION_ROLE ( 'classification_officer' ) ;
#274 = SHAPE_DEFINITION_REPRESENTATION ( #288, #302 ) ;
#275 = ORIENTED_EDGE ( 'NONE', *, *, #78, .T. ) ;
#276 = LOCAL_TIME ( 15, 4, 29.00000000000000000, #82 ) ;
#277 = CC_DESIGN_DATE_AND_TIME_ASSIGNMENT ( #62, #155, ( #122 ) ) ;
#278 = DIRECTION ( 'NONE',  ( 3.491481338843133355E-15, -1.224646799147353207E-16, 1.000000000000000000 ) ) ;
#279 = FACE_BOUND ( 'NONE', #49, .T. ) ;
#280 = CARTESIAN_POINT ( 'NONE',  ( 0.0000000000000000000, 0.0000000000000000000, 0.0000000000000000000 ) ) ;
#281 = CONICAL_SURFACE ( 'NONE', #241, 1.200000000000001732, 0.7853981633974453924 ) ;
#282 = EDGE_LOOP ( 'NONE', ( #115 ) ) ;
#283 = CYLINDRICAL_SURFACE ( 'NONE', #119, 1.499999999999999112 ) ;
#284 = CARTESIAN_POINT ( 'NONE',  ( 6.056776150402961829E-14, 0.8603844939755727061, 17.34729635533384240 ) ) ;
#285 = DIRECTION ( 'NONE',  ( 0.0000000000000000000, -1.000000000000000000, 0.0000000000000000000 ) ) ;
#286 = VERTEX_POINT ( 'NONE', #80 ) ;
#287 = MANIFOLD_SOLID_BREP ( 'Corps-Déplacer/Copier1[1]', #232 ) ;
#288 = PRODUCT_DEFINITION_SHAPE ( 'NONE', 'NONE',  #122 ) ;
#289 = CARTESIAN_POINT ( 'NONE',  ( 8.728703347107833388E-16, 0.9299999999999987166, 0.2500000000000000000 ) ) ;
#290 = CC_DESIGN_DATE_AND_TIME_ASSIGNMENT ( #247, #89, ( #75 ) ) ;
#291 = VERTEX_POINT ( 'NONE', #87 ) ;
#292 = EDGE_LOOP ( 'NONE', ( #252 ) ) ;
#293 = COORDINATED_UNIVERSAL_TIME_OFFSET ( 1, 0, .AHEAD. ) ;
#294 = AXIS2_PLACEMENT_3D ( 'NONE', #166, #259, #170 ) ;
#295 = APPROVAL_ROLE ( '' ) ;
#296 = EDGE_LOOP ( 'NONE', ( #139 ) ) ;
#297 = APPROVAL_DATE_TIME ( #181, #68 ) ;
#298 = ORIENTED_EDGE ( 'NONE', *, *, #248, .F. ) ;
#299 = EDGE_LOOP ( 'NONE', ( #275 ) ) ;
#300 = AXIS2_PLACEMENT_3D ( 'NONE', #129, #101, #167 ) ;
#301 = DIRECTION ( 'NONE',  ( 0.0000000000000000000, 1.000000000000000000, 0.0000000000000000000 ) ) ;
#302 = ADVANCED_BREP_SHAPE_REPRESENTATION ( '972720', ( #287, #91, #237 ), #154 ) ;
#303 = DESIGN_CONTEXT ( 'detailed design', #79, 'design' ) ;
ENDSEC;
END-ISO-10303-21;
