ISO-10303-21;
HEADER;
FILE_DESCRIPTION (( 'STEP AP203' ),
    '1' );
FILE_NAME ('972407.step',
    '2021-12-17T10:17:54',
    ( '' ),
    ( '' ),
    'SwSTEP 2.0',
    'SolidWorks 2019',
    '' );
FILE_SCHEMA (( 'CONFIG_CONTROL_DESIGN' ));
ENDSEC;

DATA;
#1 = AXIS2_PLACEMENT_3D ( 'NONE', #159, #86, #113 ) ;
#2 = ORIENTED_EDGE ( 'NONE', *, *, #83, .T. ) ;
#3 = FACE_OUTER_BOUND ( 'NONE', #156, .T. ) ;
#4 = AXIS2_PLACEMENT_3D ( 'NONE', #218, #245, #130 ) ;
#5 = CARTESIAN_POINT ( 'NONE',  ( 0.0000000000000000000, 0.0000000000000000000, 0.0000000000000000000 ) ) ;
#6 = DIRECTION ( 'NONE',  ( -3.491481338843133355E-15, 1.224646799147353207E-16, -1.000000000000000000 ) ) ;
#7 = DIRECTION ( 'NONE',  ( -3.491481338843133355E-15, 1.224646799147353207E-16, -1.000000000000000000 ) ) ;
#8 = APPLICATION_CONTEXT ( 'configuration controlled 3d designs of mechanical parts and assemblies' ) ;
#9 = CIRCLE ( 'NONE', #206, 0.1955217211715195580 ) ;
#10 = ADVANCED_FACE ( 'NONE', ( #77, #152 ), #248, .T. ) ;
#11 = SECURITY_CLASSIFICATION ( '', '', #210 ) ;
#12 = PRODUCT_DEFINITION_FORMATION_WITH_SPECIFIED_SOURCE ( 'ANY', '', #24, .NOT_KNOWN. ) ;
#13 = CARTESIAN_POINT ( 'NONE',  ( 1.053602707933308977E-14, 0.3286483474218600542, 3.017638090205028600 ) ) ;
#14 = FACE_OUTER_BOUND ( 'NONE', #241, .T. ) ;
#15 = DIRECTION ( 'NONE',  ( -3.491481338843133355E-15, 1.224646799147353207E-16, -1.000000000000000000 ) ) ;
#16 = DIRECTION ( 'NONE',  ( -3.693828618210912870E-31, -1.000000000000000000, -1.386293765712095029E-16 ) ) ;
#17 = PERSON_AND_ORGANIZATION_ROLE ( 'classification_officer' ) ;
#18 = EDGE_LOOP ( 'NONE', ( #118 ) ) ;
#19 = CC_DESIGN_PERSON_AND_ORGANIZATION_ASSIGNMENT ( #65, #303, ( #24 ) ) ;
#20 = DIRECTION ( 'NONE',  ( 1.000000000000000000, 0.0000000000000000000, 0.0000000000000000000 ) ) ;
#21 = AXIS2_PLACEMENT_3D ( 'NONE', #102, #194, #32 ) ;
#22 = ORIENTED_EDGE ( 'NONE', *, *, #196, .F. ) ;
#23 = EDGE_LOOP ( 'NONE', ( #262 ) ) ;
#24 = PRODUCT ( '972407', '972407', '', ( #147 ) ) ;
#25 = APPROVAL_ROLE ( '' ) ;
#26 = CC_DESIGN_DATE_AND_TIME_ASSIGNMENT ( #240, #275, ( #42 ) ) ;
#27 = AXIS2_PLACEMENT_3D ( 'NONE', #199, #267, #79 ) ;
#28 = DIRECTION ( 'NONE',  ( -3.491481338843133355E-15, 1.224646799147353207E-16, -1.000000000000000000 ) ) ;
#29 = DIRECTION ( 'NONE',  ( -3.491481338843133355E-15, 1.224646799147353207E-16, -1.000000000000000000 ) ) ;
#30 = DIRECTION ( 'NONE',  ( -4.275831445896958607E-31, -1.000000000000000000, -1.224646799147353207E-16 ) ) ;
#31 = EDGE_CURVE ( 'NONE', #249, #249, #94, .T. ) ;
#32 = DIRECTION ( 'NONE',  ( 4.275831445896958607E-31, 1.000000000000000000, 1.224646799147353207E-16 ) ) ;
#33 = FACE_OUTER_BOUND ( 'NONE', #165, .T. ) ;
#34 = CARTESIAN_POINT ( 'NONE',  ( 1.309305502066174811E-15, -4.592425496802574219E-17, 0.3749999999999999445 ) ) ;
#35 = CIRCLE ( 'NONE', #57, 0.5999999999999986455 ) ;
#36 = VERTEX_POINT ( 'NONE', #134 ) ;
#37 = CARTESIAN_POINT ( 'NONE',  ( -1.182959891489475930E-31, 0.1249999999999999722, -3.388131789017201356E-17 ) ) ;
#38 =( LENGTH_UNIT ( ) NAMED_UNIT ( * ) SI_UNIT ( .MILLI., .METRE. ) );
#39 = CLOSED_SHELL ( 'NONE', ( #217, #64, #142, #243, #105, #101, #289 ) ) ;
#40 = VERTEX_POINT ( 'NONE', #291 ) ;
#41 = PERSON_AND_ORGANIZATION_ROLE ( 'creator' ) ;
#42 = PRODUCT_DEFINITION ( 'UNKNOWN', '', #12, #253 ) ;
#43 = PERSON_AND_ORGANIZATION_ROLE ( 'design_supplier' ) ;
#44 = PERSON_AND_ORGANIZATION ( #292, #220 ) ;
#45 = EDGE_LOOP ( 'NONE', ( #145 ) ) ;
#46 = EDGE_CURVE ( 'NONE', #56, #56, #9, .T. ) ;
#47 = COORDINATED_UNIVERSAL_TIME_OFFSET ( 1, 0, .AHEAD. ) ;
#48 = DIRECTION ( 'NONE',  ( -3.491481338843133355E-15, 1.224646799147353207E-16, -1.000000000000000000 ) ) ;
#49 = CC_DESIGN_SECURITY_CLASSIFICATION ( #11, ( #12 ) ) ;
#50 = EDGE_LOOP ( 'NONE', ( #285 ) ) ;
#51 = DIRECTION ( 'NONE',  ( 0.0000000000000000000, 1.000000000000000000, 0.0000000000000000000 ) ) ;
#52 = FACE_OUTER_BOUND ( 'NONE', #120, .T. ) ;
#53 = DIRECTION ( 'NONE',  ( -3.491481338843133355E-15, 1.224646799147353207E-16, -1.000000000000000000 ) ) ;
#54 = EDGE_CURVE ( 'NONE', #85, #85, #72, .T. ) ;
#55 =( NAMED_UNIT ( * ) PLANE_ANGLE_UNIT ( ) SI_UNIT ( $, .RADIAN. ) );
#56 = VERTEX_POINT ( 'NONE', #161 ) ;
#57 = AXIS2_PLACEMENT_3D ( 'NONE', #252, #203, #180 ) ;
#58 = CARTESIAN_POINT ( 'NONE',  ( 1.047444401652940007E-13, 4.499279347985507822E-33, 30.00000000000000000 ) ) ;
#59 = DIRECTION ( 'NONE',  ( -4.275831445896958607E-31, -1.000000000000000000, -1.224646799147353207E-16 ) ) ;
#60 = CARTESIAN_POINT ( 'NONE',  ( 6.982962677686266711E-15, 1.953437116917063677E-33, 2.000000000000000000 ) ) ;
#61 = AXIS2_PLACEMENT_3D ( 'NONE', #192, #29, #197 ) ;
#62 = APPROVAL_PERSON_ORGANIZATION ( #44, #204, #205 ) ;
#63 = COORDINATED_UNIVERSAL_TIME_OFFSET ( 1, 0, .AHEAD. ) ;
#64 = ADVANCED_FACE ( 'NONE', ( #104, #33 ), #176, .T. ) ;
#65 = PERSON_AND_ORGANIZATION ( #292, #220 ) ;
#66 = ORIENTED_EDGE ( 'NONE', *, *, #54, .T. ) ;
#67 = PERSON_AND_ORGANIZATION ( #292, #220 ) ;
#68 = EDGE_LOOP ( 'NONE', ( #189 ) ) ;
#69 = PERSON_AND_ORGANIZATION ( #292, #220 ) ;
#70 = EDGE_LOOP ( 'NONE', ( #187 ) ) ;
#71 = DIRECTION ( 'NONE',  ( -3.491481338843133355E-15, 1.224646799147353207E-16, -1.000000000000000000 ) ) ;
#72 = CIRCLE ( 'NONE', #137, 0.7499999999999968914 ) ;
#73 = CIRCLE ( 'NONE', #1, 0.2604999999999997318 ) ;
#74 = AXIS2_PLACEMENT_3D ( 'NONE', #121, #91, #20 ) ;
#75 = DIRECTION ( 'NONE',  ( 0.0000000000000000000, 1.000000000000000000, 0.0000000000000000000 ) ) ;
#76 = ORIENTED_EDGE ( 'NONE', *, *, #157, .F. ) ;
#77 = FACE_OUTER_BOUND ( 'NONE', #98, .T. ) ;
#78 = AXIS2_PLACEMENT_3D ( 'NONE', #242, #53, #99 ) ;
#79 = DIRECTION ( 'NONE',  ( 4.338160502118668150E-31, 1.000000000000000000, 1.224646799147353207E-16 ) ) ;
#80 = CARTESIAN_POINT ( 'NONE',  ( 1.602640164892796796E-14, -5.621304992485682116E-16, 4.590143865479788587 ) ) ;
#81 = UNCERTAINTY_MEASURE_WITH_UNIT (LENGTH_MEASURE( 1.000000000000000082E-05 ), #38, 'distance_accuracy_value', 'NONE');
#82 = PLANE ( 'NONE',  #108 ) ;
#83 = EDGE_CURVE ( 'NONE', #158, #158, #213, .T. ) ;
#84 = AXIS2_PLACEMENT_3D ( 'NONE', #255, #202, #138 ) ;
#85 = VERTEX_POINT ( 'NONE', #179 ) ;
#86 = DIRECTION ( 'NONE',  ( -3.491481338843133355E-15, 1.224646799147353207E-16, -1.000000000000000000 ) ) ;
#87 = EDGE_CURVE ( 'NONE', #160, #160, #173, .T. ) ;
#88 = APPROVAL_ROLE ( '' ) ;
#89 = AXIS2_PLACEMENT_3D ( 'NONE', #280, #71, #51 ) ;
#90 = EDGE_LOOP ( 'NONE', ( #106 ) ) ;
#91 = DIRECTION ( 'NONE',  ( 0.0000000000000000000, 0.0000000000000000000, 1.000000000000000000 ) ) ;
#92 = EDGE_LOOP ( 'NONE', ( #233 ) ) ;
#93 = ORIENTED_EDGE ( 'NONE', *, *, #46, .F. ) ;
#94 = CIRCLE ( 'NONE', #229, 0.7499999999999984457 ) ;
#95 = CALENDAR_DATE ( 2021, 17, 12 ) ;
#96 = AXIS2_PLACEMENT_3D ( 'NONE', #34, #15, #294 ) ;
#97 = APPROVAL_PERSON_ORGANIZATION ( #146, #127, #88 ) ;
#98 = EDGE_LOOP ( 'NONE', ( #123 ) ) ;
#99 = DIRECTION ( 'NONE',  ( 4.275831445896958607E-31, 1.000000000000000000, 1.224646799147353207E-16 ) ) ;
#100 = ADVANCED_BREP_SHAPE_REPRESENTATION ( '972407', ( #144, #247, #74 ), #184 ) ;
#101 = ADVANCED_FACE ( 'NONE', ( #52, #265 ), #183, .T. ) ;
#102 = CARTESIAN_POINT ( 'NONE',  ( 0.0000000000000000000, 0.0000000000000000000, 0.0000000000000000000 ) ) ;
#103 = CC_DESIGN_APPROVAL ( #177, ( #42 ) ) ;
#104 = FACE_OUTER_BOUND ( 'NONE', #68, .T. ) ;
#105 = ADVANCED_FACE ( 'NONE', ( #171, #3 ), #172, .T. ) ;
#106 = ORIENTED_EDGE ( 'NONE', *, *, #261, .F. ) ;
#107 = FACE_BOUND ( 'NONE', #211, .T. ) ;
#108 = AXIS2_PLACEMENT_3D ( 'NONE', #60, #115, #59 ) ;
#109 = CONICAL_SURFACE ( 'NONE', #246, 0.1955217211715195580, 1.047197551196593412 ) ;
#110 = DIRECTION ( 'NONE',  ( 0.0000000000000000000, 1.000000000000000000, 0.0000000000000000000 ) ) ;
#111 = ADVANCED_FACE ( 'NONE', ( #284 ), #174, .T. ) ;
#112 = CARTESIAN_POINT ( 'NONE',  ( 1.053602707933308977E-14, -3.695540828154720475E-16, 3.017638090205028600 ) ) ;
#113 = DIRECTION ( 'NONE',  ( 0.0000000000000000000, 1.000000000000000000, 0.0000000000000000000 ) ) ;
#114 = CC_DESIGN_APPROVAL ( #127, ( #12 ) ) ;
#115 = DIRECTION ( 'NONE',  ( 3.491481338843133355E-15, -1.224646799147353207E-16, 1.000000000000000000 ) ) ;
#116 = ADVANCED_FACE ( 'NONE', ( #154, #129 ), #283, .T. ) ;
#117 = PLANE ( 'NONE',  #84 ) ;
#118 = ORIENTED_EDGE ( 'NONE', *, *, #54, .F. ) ;
#119 = COORDINATED_UNIVERSAL_TIME_OFFSET ( 1, 0, .AHEAD. ) ;
#120 = EDGE_LOOP ( 'NONE', ( #126 ) ) ;
#121 = CARTESIAN_POINT ( 'NONE',  ( 0.0000000000000000000, 0.0000000000000000000, 0.0000000000000000000 ) ) ;
#122 = APPROVAL_STATUS ( 'not_yet_approved' ) ;
#123 = ORIENTED_EDGE ( 'NONE', *, *, #164, .F. ) ;
#124 = DATE_AND_TIME ( #185, #257 ) ;
#125 = AXIS2_PLACEMENT_3D ( 'NONE', #80, #231, #296 ) ;
#126 = ORIENTED_EDGE ( 'NONE', *, *, #31, .F. ) ;
#127 = APPROVAL ( #122, 'UNSPECIFIED' ) ;
#128 = EDGE_LOOP ( 'NONE', ( #22 ) ) ;
#129 = FACE_OUTER_BOUND ( 'NONE', #223, .T. ) ;
#130 = DIRECTION ( 'NONE',  ( -7.393205160795544670E-31, -1.000000000000000000, -2.081002250452027684E-16 ) ) ;
#131 = CARTESIAN_POINT ( 'NONE',  ( -1.717438822226595537E-31, 6.023964478836632719E-33, -4.918940287951392557E-17 ) ) ;
#132 = CARTESIAN_POINT ( 'NONE',  ( 8.728703347107833388E-15, -3.061616997868383141E-16, 2.500000000000000000 ) ) ;
#133 = PRODUCT_RELATED_PRODUCT_CATEGORY ( 'detail', '', ( #24 ) ) ;
#134 = CARTESIAN_POINT ( 'NONE',  ( 1.309305502066175008E-15, 0.2604999999999994542, 0.3750000000000000000 ) ) ;
#135 = CARTESIAN_POINT ( 'NONE',  ( 6.982962677686266711E-15, 0.2604999999999994542, 2.000000000000000000 ) ) ;
#136 = DIRECTION ( 'NONE',  ( -3.491481338843133355E-15, 1.224646799147353207E-16, -1.000000000000000000 ) ) ;
#137 = AXIS2_PLACEMENT_3D ( 'NONE', #215, #48, #286 ) ;
#138 = DIRECTION ( 'NONE',  ( -4.275831445896958607E-31, -1.000000000000000000, -1.224646799147353207E-16 ) ) ;
#139 = PERSON_AND_ORGANIZATION ( #292, #220 ) ;
#140 = COORDINATED_UNIVERSAL_TIME_OFFSET ( 1, 0, .AHEAD. ) ;
#141 = ORIENTED_EDGE ( 'NONE', *, *, #31, .T. ) ;
#142 = ADVANCED_FACE ( 'NONE', ( #221, #287 ), #219, .F. ) ;
#143 = APPROVAL_STATUS ( 'not_yet_approved' ) ;
#144 = MANIFOLD_SOLID_BREP ( 'Corps-Déplacer/Copier1[1]', #39 ) ;
#145 = ORIENTED_EDGE ( 'NONE', *, *, #157, .T. ) ;
#146 = PERSON_AND_ORGANIZATION ( #292, #220 ) ;
#147 = MECHANICAL_CONTEXT ( 'NONE', #8, 'mechanical' ) ;
#148 = ADVANCED_FACE ( 'NONE', ( #107, #297 ), #109, .T. ) ;
#149 = CARTESIAN_POINT ( 'NONE',  ( 1.042207179644675275E-13, -3.655570695454848748E-15, 29.84999999999999787 ) ) ;
#150 = AXIS2_PLACEMENT_3D ( 'NONE', #5, #7, #264 ) ;
#151 = AXIS2_PLACEMENT_3D ( 'NONE', #132, #225, #110 ) ;
#152 = FACE_OUTER_BOUND ( 'NONE', #50, .T. ) ;
#153 = CARTESIAN_POINT ( 'NONE',  ( 6.982962677686266711E-15, 1.953437116917063677E-33, 2.000000000000000000 ) ) ;
#154 = FACE_BOUND ( 'NONE', #302, .T. ) ;
#155 = CIRCLE ( 'NONE', #151, 0.2604999999999997873 ) ;
#156 = EDGE_LOOP ( 'NONE', ( #141 ) ) ;
#157 = EDGE_CURVE ( 'NONE', #273, #273, #35, .T. ) ;
#158 = VERTEX_POINT ( 'NONE', #251 ) ;
#159 = CARTESIAN_POINT ( 'NONE',  ( 6.982962677686266711E-15, -2.449293598294706414E-16, 2.000000000000000000 ) ) ;
#160 = VERTEX_POINT ( 'NONE', #37 ) ;
#161 = CARTESIAN_POINT ( 'NONE',  ( 1.421582279096453364E-16, 0.1955217211715195580, 0.04071573470209295664 ) ) ;
#162 = APPROVAL_DATE_TIME ( #124, #177 ) ;
#163 = APPLICATION_PROTOCOL_DEFINITION ( 'international standard', 'config_control_design', 1994, #239 ) ;
#164 = EDGE_CURVE ( 'NONE', #36, #36, #207, .T. ) ;
#165 = EDGE_LOOP ( 'NONE', ( #216 ) ) ;
#166 = DATE_AND_TIME ( #278, #224 ) ;
#167 = ORIENTED_EDGE ( 'NONE', *, *, #164, .T. ) ;
#168 = DIRECTION ( 'NONE',  ( 3.491481338843133355E-15, -1.224646799147353207E-16, 1.000000000000000000 ) ) ;
#169 = ADVANCED_FACE ( 'NONE', ( #295 ), #117, .F. ) ;
#170 = PERSON_AND_ORGANIZATION_ROLE ( 'creator' ) ;
#171 = FACE_OUTER_BOUND ( 'NONE', #18, .T. ) ;
#172 = CYLINDRICAL_SURFACE ( 'NONE', #21, 0.7499999999999976685 ) ;
#173 = CIRCLE ( 'NONE', #266, 0.1249999999999999722 ) ;
#174 = PLANE ( 'NONE',  #195 ) ;
#175 = DIRECTION ( 'NONE',  ( 4.275831445896957731E-31, 1.000000000000000000, 1.224646799147353207E-16 ) ) ;
#176 = CYLINDRICAL_SURFACE ( 'NONE', #78, 0.2604999999999997873 ) ;
#177 = APPROVAL ( #188, 'UNSPECIFIED' ) ;
#178 = FACE_OUTER_BOUND ( 'NONE', #237, .T. ) ;
#179 = CARTESIAN_POINT ( 'NONE',  ( 1.602640164892796796E-14, 0.7499999999999963363, 4.590143865479788587 ) ) ;
#180 = DIRECTION ( 'NONE',  ( 0.0000000000000000000, 1.000000000000000000, 0.0000000000000000000 ) ) ;
#181 = PLANE ( 'NONE',  #288 ) ;
#182 = COORDINATED_UNIVERSAL_TIME_OFFSET ( 1, 0, .AHEAD. ) ;
#183 = CONICAL_SURFACE ( 'NONE', #89, 0.5999999999999986455, 0.7853981633974450594 ) ;
#184 =( GEOMETRIC_REPRESENTATION_CONTEXT ( 3 ) GLOBAL_UNCERTAINTY_ASSIGNED_CONTEXT ( ( #81 ) ) GLOBAL_UNIT_ASSIGNED_CONTEXT ( ( #38, #55, #298 ) ) REPRESENTATION_CONTEXT ( 'NONE', 'WORKASPACE' ) );
#185 = CALENDAR_DATE ( 2021, 17, 12 ) ;
#186 = CC_DESIGN_PERSON_AND_ORGANIZATION_ASSIGNMENT ( #67, #41, ( #12 ) ) ;
#187 = ORIENTED_EDGE ( 'NONE', *, *, #227, .F. ) ;
#188 = APPROVAL_STATUS ( 'not_yet_approved' ) ;
#189 = ORIENTED_EDGE ( 'NONE', *, *, #83, .F. ) ;
#190 = CLOSED_SHELL ( 'NONE', ( #169, #148, #116, #10, #111 ) ) ;
#191 = PRODUCT_DEFINITION_SHAPE ( 'NONE', 'NONE',  #42 ) ;
#192 = CARTESIAN_POINT ( 'NONE',  ( 6.982962677686266711E-15, -2.449293598294706414E-16, 2.000000000000000000 ) ) ;
#193 = DIRECTION ( 'NONE',  ( -3.491481338843133355E-15, 1.224646799147353207E-16, -1.000000000000000000 ) ) ;
#194 = DIRECTION ( 'NONE',  ( -3.491481338843133355E-15, 1.224646799147353207E-16, -1.000000000000000000 ) ) ;
#195 = AXIS2_PLACEMENT_3D ( 'NONE', #153, #244, #30 ) ;
#196 = EDGE_CURVE ( 'NONE', #226, #226, #271, .T. ) ;
#197 = DIRECTION ( 'NONE',  ( 0.0000000000000000000, 1.000000000000000000, 0.0000000000000000000 ) ) ;
#198 = EDGE_LOOP ( 'NONE', ( #209 ) ) ;
#199 = CARTESIAN_POINT ( 'NONE',  ( 8.728703347107833388E-15, -4.336808689942017736E-16, 2.500000000000000000 ) ) ;
#200 = CARTESIAN_POINT ( 'NONE',  ( 1.042207179644675275E-13, 0.7499999999999947820, 29.84999999999999787 ) ) ;
#201 = DIRECTION ( 'NONE',  ( 0.0000000000000000000, 1.000000000000000000, 0.0000000000000000000 ) ) ;
#202 = DIRECTION ( 'NONE',  ( 3.491481338843133355E-15, -1.224646799147353207E-16, 1.000000000000000000 ) ) ;
#203 = DIRECTION ( 'NONE',  ( -3.491481338843133355E-15, 1.224646799147353207E-16, -1.000000000000000000 ) ) ;
#204 = APPROVAL ( #143, 'UNSPECIFIED' ) ;
#205 = APPROVAL_ROLE ( '' ) ;
#206 = AXIS2_PLACEMENT_3D ( 'NONE', #282, #28, #263 ) ;
#207 = CIRCLE ( 'NONE', #96, 0.2604999999999995097 ) ;
#208 = ORIENTED_EDGE ( 'NONE', *, *, #87, .F. ) ;
#209 = ORIENTED_EDGE ( 'NONE', *, *, #196, .T. ) ;
#210 = SECURITY_CLASSIFICATION_LEVEL ( 'unclassified' ) ;
#211 = EDGE_LOOP ( 'NONE', ( #208 ) ) ;
#212 = CALENDAR_DATE ( 2021, 17, 12 ) ;
#213 = CIRCLE ( 'NONE', #61, 0.2604999999999997318 ) ;
#214 = PERSON_AND_ORGANIZATION ( #292, #220 ) ;
#215 = CARTESIAN_POINT ( 'NONE',  ( 1.602640164892796796E-14, -5.621304992485682116E-16, 4.590143865479788587 ) ) ;
#216 = ORIENTED_EDGE ( 'NONE', *, *, #227, .T. ) ;
#217 = ADVANCED_FACE ( 'NONE', ( #228 ), #82, .F. ) ;
#218 = CARTESIAN_POINT ( 'NONE',  ( 1.309305502066174811E-15, -4.592425496802574219E-17, 0.3749999999999999445 ) ) ;
#219 = TOROIDAL_SURFACE ( 'NONE', #27, 2.260499999999999954, 2.000000000000000000 ) ;
#220 = ORGANIZATION ( 'UNSPECIFIED', 'UNSPECIFIED', '' ) ;
#221 = FACE_OUTER_BOUND ( 'NONE', #70, .T. ) ;
#222 = CC_DESIGN_PERSON_AND_ORGANIZATION_ASSIGNMENT ( #234, #17, ( #11 ) ) ;
#223 = EDGE_LOOP ( 'NONE', ( #167 ) ) ;
#224 = LOCAL_TIME ( 11, 17, 54.00000000000000000, #119 ) ;
#225 = DIRECTION ( 'NONE',  ( -3.491481338843133355E-15, 1.224646799147353207E-16, -1.000000000000000000 ) ) ;
#226 = VERTEX_POINT ( 'NONE', #13 ) ;
#227 = EDGE_CURVE ( 'NONE', #40, #40, #155, .T. ) ;
#228 = FACE_OUTER_BOUND ( 'NONE', #277, .T. ) ;
#229 = AXIS2_PLACEMENT_3D ( 'NONE', #149, #6, #75 ) ;
#230 = CC_DESIGN_APPROVAL ( #204, ( #11 ) ) ;
#231 = DIRECTION ( 'NONE',  ( 3.491481338843133355E-15, -1.224646799147353207E-16, 1.000000000000000000 ) ) ;
#232 = CC_DESIGN_DATE_AND_TIME_ASSIGNMENT ( #166, #260, ( #11 ) ) ;
#233 = ORIENTED_EDGE ( 'NONE', *, *, #87, .T. ) ;
#234 = PERSON_AND_ORGANIZATION ( #292, #220 ) ;
#235 = DATE_AND_TIME ( #236, #279 ) ;
#236 = CALENDAR_DATE ( 2021, 17, 12 ) ;
#237 = EDGE_LOOP ( 'NONE', ( #66 ) ) ;
#238 = CARTESIAN_POINT ( 'NONE',  ( 1.421582279096452624E-16, -4.986239417785092556E-18, 0.04071573470209292889 ) ) ;
#239 = APPLICATION_CONTEXT ( 'configuration controlled 3d designs of mechanical parts and assemblies' ) ;
#240 = DATE_AND_TIME ( #212, #250 ) ;
#241 = EDGE_LOOP ( 'NONE', ( #76 ) ) ;
#242 = CARTESIAN_POINT ( 'NONE',  ( 0.0000000000000000000, 0.0000000000000000000, 0.0000000000000000000 ) ) ;
#243 = ADVANCED_FACE ( 'NONE', ( #268, #178 ), #256, .T. ) ;
#244 = DIRECTION ( 'NONE',  ( 3.491481338843133355E-15, -1.224646799147353207E-16, 1.000000000000000000 ) ) ;
#245 = DIRECTION ( 'NONE',  ( 3.491481338843133355E-15, -1.224646799147353207E-16, 1.000000000000000000 ) ) ;
#246 = AXIS2_PLACEMENT_3D ( 'NONE', #238, #168, #16 ) ;
#247 = MANIFOLD_SOLID_BREP ( 'Corps-Déplacer/Copier1[2]', #190 ) ;
#248 = CYLINDRICAL_SURFACE ( 'NONE', #150, 0.2604999999999996207 ) ;
#249 = VERTEX_POINT ( 'NONE', #200 ) ;
#250 = LOCAL_TIME ( 11, 17, 54.00000000000000000, #47 ) ;
#251 = CARTESIAN_POINT ( 'NONE',  ( 6.982962677686266711E-15, 0.2604999999999994542, 2.000000000000000000 ) ) ;
#252 = CARTESIAN_POINT ( 'NONE',  ( 1.047444401652940007E-13, -3.673940397442059178E-15, 30.00000000000000000 ) ) ;
#253 = DESIGN_CONTEXT ( 'detailed design', #239, 'design' ) ;
#254 = CARTESIAN_POINT ( 'NONE',  ( 1.047444401652940007E-13, 0.5999999999999949818, 30.00000000000000000 ) ) ;
#255 = CARTESIAN_POINT ( 'NONE',  ( -8.587194111132977684E-32, 3.011982239418316360E-33, -2.459470143975696279E-17 ) ) ;
#256 = CONICAL_SURFACE ( 'NONE', #125, 0.7499999999999968914, 0.2617993877991424134 ) ;
#257 = LOCAL_TIME ( 11, 17, 54.00000000000000000, #182 ) ;
#258 = APPROVAL_DATE_TIME ( #276, #127 ) ;
#259 = APPLICATION_PROTOCOL_DEFINITION ( 'international standard', 'config_control_design', 1994, #8 ) ;
#260 = DATE_TIME_ROLE ( 'classification_date' ) ;
#261 = EDGE_CURVE ( 'NONE', #272, #272, #73, .T. ) ;
#262 = ORIENTED_EDGE ( 'NONE', *, *, #46, .T. ) ;
#263 = DIRECTION ( 'NONE',  ( 3.693828618210912870E-31, 1.000000000000000000, 1.386293765712095029E-16 ) ) ;
#264 = DIRECTION ( 'NONE',  ( 4.275831445896958607E-31, 1.000000000000000000, 1.224646799147352961E-16 ) ) ;
#265 = FACE_BOUND ( 'NONE', #45, .T. ) ;
#266 = AXIS2_PLACEMENT_3D ( 'NONE', #131, #193, #175 ) ;
#267 = DIRECTION ( 'NONE',  ( -3.491481338843133355E-15, 1.224646799147353207E-16, -1.000000000000000000 ) ) ;
#268 = FACE_BOUND ( 'NONE', #128, .T. ) ;
#269 = DIRECTION ( 'NONE',  ( 4.275831445896958607E-31, 1.000000000000000000, 1.224646799147353207E-16 ) ) ;
#270 = CC_DESIGN_PERSON_AND_ORGANIZATION_ASSIGNMENT ( #69, #170, ( #42 ) ) ;
#271 = CIRCLE ( 'NONE', #274, 0.3286483474218604428 ) ;
#272 = VERTEX_POINT ( 'NONE', #135 ) ;
#273 = VERTEX_POINT ( 'NONE', #254 ) ;
#274 = AXIS2_PLACEMENT_3D ( 'NONE', #112, #290, #201 ) ;
#275 = DATE_TIME_ROLE ( 'creation_date' ) ;
#276 = DATE_AND_TIME ( #95, #299 ) ;
#277 = EDGE_LOOP ( 'NONE', ( #2 ) ) ;
#278 = CALENDAR_DATE ( 2021, 17, 12 ) ;
#279 = LOCAL_TIME ( 11, 17, 54.00000000000000000, #140 ) ;
#280 = CARTESIAN_POINT ( 'NONE',  ( 1.047444401652940007E-13, -3.673940397442059178E-15, 30.00000000000000000 ) ) ;
#281 = CC_DESIGN_PERSON_AND_ORGANIZATION_ASSIGNMENT ( #139, #43, ( #12 ) ) ;
#282 = CARTESIAN_POINT ( 'NONE',  ( 1.421582279096452624E-16, -4.986239417785092556E-18, 0.04071573470209292889 ) ) ;
#283 = CONICAL_SURFACE ( 'NONE', #4, 0.2604999999999995097, 0.1919862177193695230 ) ;
#284 = FACE_OUTER_BOUND ( 'NONE', #90, .T. ) ;
#285 = ORIENTED_EDGE ( 'NONE', *, *, #261, .T. ) ;
#286 = DIRECTION ( 'NONE',  ( 0.0000000000000000000, 1.000000000000000000, 0.0000000000000000000 ) ) ;
#287 = FACE_OUTER_BOUND ( 'NONE', #198, .T. ) ;
#288 = AXIS2_PLACEMENT_3D ( 'NONE', #58, #136, #269 ) ;
#289 = ADVANCED_FACE ( 'NONE', ( #14 ), #181, .F. ) ;
#290 = DIRECTION ( 'NONE',  ( -3.491481338843133355E-15, 1.224646799147353207E-16, -1.000000000000000000 ) ) ;
#291 = CARTESIAN_POINT ( 'NONE',  ( 8.728703347107833388E-15, 0.2604999999999994542, 2.500000000000000000 ) ) ;
#292 = PERSON ( 'UNSPECIFIED', 'UNSPECIFIED', 'UNSPECIFIED', ('UNSPECIFIED'), ('UNSPECIFIED'), ('UNSPECIFIED') ) ;
#293 = APPROVAL_PERSON_ORGANIZATION ( #214, #177, #25 ) ;
#294 = DIRECTION ( 'NONE',  ( 7.393205160795544670E-31, 1.000000000000000000, 2.081002250452027684E-16 ) ) ;
#295 = FACE_OUTER_BOUND ( 'NONE', #92, .T. ) ;
#296 = DIRECTION ( 'NONE',  ( 0.0000000000000000000, -1.000000000000000000, 0.0000000000000000000 ) ) ;
#297 = FACE_OUTER_BOUND ( 'NONE', #23, .T. ) ;
#298 =( NAMED_UNIT ( * ) SI_UNIT ( $, .STERADIAN. ) SOLID_ANGLE_UNIT ( ) );
#299 = LOCAL_TIME ( 11, 17, 54.00000000000000000, #63 ) ;
#300 = APPROVAL_DATE_TIME ( #235, #204 ) ;
#301 = SHAPE_DEFINITION_REPRESENTATION ( #191, #100 ) ;
#302 = EDGE_LOOP ( 'NONE', ( #93 ) ) ;
#303 = PERSON_AND_ORGANIZATION_ROLE ( 'design_owner' ) ;
ENDSEC;
END-ISO-10303-21;
