ISO-10303-21;
HEADER;
FILE_DESCRIPTION (( 'STEP AP203' ),
    '1' );
FILE_NAME ('972401.step',
    '2021-11-25T13:47:10',
    ( '' ),
    ( '' ),
    'SwSTEP 2.0',
    'SolidWorks 2019',
    '' );
FILE_SCHEMA (( 'CONFIG_CONTROL_DESIGN' ));
ENDSEC;

DATA;
#1 = FACE_OUTER_BOUND ( 'NONE', #160, .T. ) ;
#2 = APPROVAL_DATE_TIME ( #179, #185 ) ;
#3 = APPROVAL ( #116, 'UNSPECIFIED' ) ;
#4 = APPROVAL_DATE_TIME ( #81, #3 ) ;
#5 = CC_DESIGN_APPROVAL ( #3, ( #40 ) ) ;
#6 = COORDINATED_UNIVERSAL_TIME_OFFSET ( 1, 0, .AHEAD. ) ;
#7 = DIRECTION ( 'NONE',  ( -4.275831445896958607E-31, -1.000000000000000000, -1.224646799147353207E-16 ) ) ;
#8 = AXIS2_PLACEMENT_3D ( 'NONE', #198, #106, #48 ) ;
#9 = CARTESIAN_POINT ( 'NONE',  ( 1.326762908760390423E-13, -4.653657836759941941E-15, 38.00000000000000000 ) ) ;
#10 = DIRECTION ( 'NONE',  ( -3.491481338843133355E-15, 1.224646799147353207E-16, -1.000000000000000000 ) ) ;
#11 = AXIS2_PLACEMENT_3D ( 'NONE', #67, #194, #102 ) ;
#12 = PRODUCT_DEFINITION ( 'UNKNOWN', '', #40, #52 ) ;
#13 = COORDINATED_UNIVERSAL_TIME_OFFSET ( 1, 0, .AHEAD. ) ;
#14 = EDGE_LOOP ( 'NONE', ( #171 ) ) ;
#15 = FACE_OUTER_BOUND ( 'NONE', #186, .T. ) ;
#16 = EDGE_LOOP ( 'NONE', ( #122 ) ) ;
#17 = DIRECTION ( 'NONE',  ( 4.275831445896958607E-31, 1.000000000000000000, 1.224646799147353207E-16 ) ) ;
#18 = CC_DESIGN_APPROVAL ( #185, ( #12 ) ) ;
#19 = ADVANCED_FACE ( 'NONE', ( #175 ), #33, .T. ) ;
#20 = DATE_AND_TIME ( #163, #119 ) ;
#21 = APPROVAL_STATUS ( 'not_yet_approved' ) ;
#22 = COORDINATED_UNIVERSAL_TIME_OFFSET ( 1, 0, .AHEAD. ) ;
#23 = CALENDAR_DATE ( 2021, 25, 11 ) ;
#24 = DATE_AND_TIME ( #63, #107 ) ;
#25 = AXIS2_PLACEMENT_3D ( 'NONE', #134, #53, #197 ) ;
#26 = EDGE_CURVE ( 'NONE', #172, #172, #156, .T. ) ;
#27 = MANIFOLD_SOLID_BREP ( 'Corps-Déplacer/Copier1[1]', #66 ) ;
#28 = DIRECTION ( 'NONE',  ( 0.0000000000000000000, 1.000000000000000000, 0.0000000000000000000 ) ) ;
#29 = ORIENTED_EDGE ( 'NONE', *, *, #94, .T. ) ;
#30 = CC_DESIGN_DATE_AND_TIME_ASSIGNMENT ( #177, #96, ( #12 ) ) ;
#31 = ORIENTED_EDGE ( 'NONE', *, *, #26, .T. ) ;
#32 = DIRECTION ( 'NONE',  ( -3.491481338843133355E-15, 1.224646799147353207E-16, -1.000000000000000000 ) ) ;
#33 = PLANE ( 'NONE',  #153 ) ;
#34 = APPLICATION_PROTOCOL_DEFINITION ( 'international standard', 'config_control_design', 1994, #157 ) ;
#35 = CC_DESIGN_DATE_AND_TIME_ASSIGNMENT ( #20, #117, ( #180 ) ) ;
#36 = PERSON_AND_ORGANIZATION_ROLE ( 'design_supplier' ) ;
#37 = CC_DESIGN_SECURITY_CLASSIFICATION ( #180, ( #40 ) ) ;
#38 = APPROVAL_DATE_TIME ( #24, #133 ) ;
#39 = FACE_OUTER_BOUND ( 'NONE', #14, .T. ) ;
#40 = PRODUCT_DEFINITION_FORMATION_WITH_SPECIFIED_SOURCE ( 'ANY', '', #154, .NOT_KNOWN. ) ;
#41 = CARTESIAN_POINT ( 'NONE',  ( 8.829237685930273190E-15, -3.096879697076762812E-16, 2.528794179050589452 ) ) ;
#42 = CLOSED_SHELL ( 'NONE', ( #101, #62, #19 ) ) ;
#43 = APPLICATION_PROTOCOL_DEFINITION ( 'international standard', 'config_control_design', 1994, #85 ) ;
#44 = DIRECTION ( 'NONE',  ( -3.491481338843133355E-15, 1.224646799147353207E-16, -1.000000000000000000 ) ) ;
#45 = CIRCLE ( 'NONE', #8, 1.500000000000000222 ) ;
#46 = ORIENTED_EDGE ( 'NONE', *, *, #112, .F. ) ;
#47 = DIRECTION ( 'NONE',  ( 0.0000000000000000000, 0.0000000000000000000, 1.000000000000000000 ) ) ;
#48 = DIRECTION ( 'NONE',  ( 0.0000000000000000000, 1.000000000000000000, 0.0000000000000000000 ) ) ;
#49 = AXIS2_PLACEMENT_3D ( 'NONE', #202, #44, #17 ) ;
#50 = PERSON_AND_ORGANIZATION_ROLE ( 'classification_officer' ) ;
#51 = ADVANCED_FACE ( 'NONE', ( #39 ), #155, .F. ) ;
#52 = DESIGN_CONTEXT ( 'detailed design', #85, 'design' ) ;
#53 = DIRECTION ( 'NONE',  ( 3.491481338843133355E-15, -1.224646799147353207E-16, 1.000000000000000000 ) ) ;
#54 = CARTESIAN_POINT ( 'NONE',  ( 1.326762908760390423E-13, -4.653657836759941941E-15, 38.00000000000000000 ) ) ;
#55 = FACE_OUTER_BOUND ( 'NONE', #56, .T. ) ;
#56 = EDGE_LOOP ( 'NONE', ( #140 ) ) ;
#57 = EDGE_CURVE ( 'NONE', #143, #143, #104, .T. ) ;
#58 = DIRECTION ( 'NONE',  ( 3.491481338843133355E-15, -1.224646799147353207E-16, 1.000000000000000000 ) ) ;
#59 = CARTESIAN_POINT ( 'NONE',  ( 1.316288464743861212E-13, 1.499999999999995781, 37.69999999999999574 ) ) ;
#60 = PERSON_AND_ORGANIZATION ( #149, #121 ) ;
#61 = PERSON_AND_ORGANIZATION ( #149, #121 ) ;
#62 = ADVANCED_FACE ( 'NONE', ( #118, #98 ), #168, .T. ) ;
#63 = CALENDAR_DATE ( 2021, 25, 11 ) ;
#64 = AXIS2_PLACEMENT_3D ( 'NONE', #54, #152, #77 ) ;
#65 = CC_DESIGN_PERSON_AND_ORGANIZATION_ASSIGNMENT ( #193, #50, ( #180 ) ) ;
#66 = CLOSED_SHELL ( 'NONE', ( #51, #80, #83, #70 ) ) ;
#67 = CARTESIAN_POINT ( 'NONE',  ( 8.829237685930273190E-15, 7.311264380520949153E-16, 2.528794179050589452 ) ) ;
#68 = AXIS2_PLACEMENT_3D ( 'NONE', #188, #58, #123 ) ;
#69 = DIRECTION ( 'NONE',  ( 0.0000000000000000000, 1.000000000000000000, 0.0000000000000000000 ) ) ;
#70 = ADVANCED_FACE ( 'NONE', ( #55 ), #170, .F. ) ;
#71 = EDGE_LOOP ( 'NONE', ( #46 ) ) ;
#72 = EDGE_LOOP ( 'NONE', ( #105 ) ) ;
#73 = VERTEX_POINT ( 'NONE', #145 ) ;
#74 = AXIS2_PLACEMENT_3D ( 'NONE', #136, #184, #169 ) ;
#75 = CARTESIAN_POINT ( 'NONE',  ( 8.829237685930273190E-15, 1.499999999999995337, 2.528794179050589452 ) ) ;
#76 = CARTESIAN_POINT ( 'NONE',  ( 0.0000000000000000000, 0.0000000000000000000, 0.0000000000000000000 ) ) ;
#77 = DIRECTION ( 'NONE',  ( 0.0000000000000000000, 1.000000000000000000, 0.0000000000000000000 ) ) ;
#78 = AXIS2_PLACEMENT_3D ( 'NONE', #9, #182, #69 ) ;
#79 = PERSON_AND_ORGANIZATION_ROLE ( 'creator' ) ;
#80 = ADVANCED_FACE ( 'NONE', ( #162, #108 ), #150, .T. ) ;
#81 = DATE_AND_TIME ( #146, #87 ) ;
#82 = DIRECTION ( 'NONE',  ( 4.275831445896959482E-31, 1.000000000000000000, 1.224646799147353207E-16 ) ) ;
#83 = ADVANCED_FACE ( 'NONE', ( #1, #195 ), #148, .T. ) ;
#84 = APPROVAL_ROLE ( '' ) ;
#85 = APPLICATION_CONTEXT ( 'configuration controlled 3d designs of mechanical parts and assemblies' ) ;
#86 = CARTESIAN_POINT ( 'NONE',  ( 0.0000000000000000000, 0.04000000000000030614, 0.0000000000000000000 ) ) ;
#87 = LOCAL_TIME ( 14, 47, 10.00000000000000000, #22 ) ;
#88 = EDGE_LOOP ( 'NONE', ( #29 ) ) ;
#89 = VERTEX_POINT ( 'NONE', #86 ) ;
#90 = CARTESIAN_POINT ( 'NONE',  ( 8.829237685930273190E-15, 7.311264380520949153E-16, 2.528794179050589452 ) ) ;
#91 = MECHANICAL_CONTEXT ( 'NONE', #157, 'mechanical' ) ;
#92 = CC_DESIGN_APPROVAL ( #133, ( #180 ) ) ;
#93 = PERSON_AND_ORGANIZATION ( #149, #121 ) ;
#94 = EDGE_CURVE ( 'NONE', #203, #203, #45, .T. ) ;
#95 = PRODUCT_RELATED_PRODUCT_CATEGORY ( 'detail', '', ( #154 ) ) ;
#96 = DATE_TIME_ROLE ( 'creation_date' ) ;
#97 = CARTESIAN_POINT ( 'NONE',  ( 0.0000000000000000000, 0.0000000000000000000, 0.0000000000000000000 ) ) ;
#98 = FACE_OUTER_BOUND ( 'NONE', #144, .T. ) ;
#99 = ADVANCED_BREP_SHAPE_REPRESENTATION ( '972401', ( #27, #167, #192 ), #125 ) ;
#100 = APPROVAL_PERSON_ORGANIZATION ( #60, #185, #84 ) ;
#101 = ADVANCED_FACE ( 'NONE', ( #15 ), #124, .F. ) ;
#102 = DIRECTION ( 'NONE',  ( -4.275831445896958607E-31, -1.000000000000000000, -1.224646799147353207E-16 ) ) ;
#103 = CC_DESIGN_PERSON_AND_ORGANIZATION_ASSIGNMENT ( #165, #36, ( #40 ) ) ;
#104 = CIRCLE ( 'NONE', #199, 1.499999999999995559 ) ;
#105 = ORIENTED_EDGE ( 'NONE', *, *, #141, .F. ) ;
#106 = DIRECTION ( 'NONE',  ( -3.491481338843133355E-15, 1.224646799147353207E-16, -1.000000000000000000 ) ) ;
#107 = LOCAL_TIME ( 14, 47, 10.00000000000000000, #115 ) ;
#108 = FACE_OUTER_BOUND ( 'NONE', #88, .T. ) ;
#109 = EDGE_LOOP ( 'NONE', ( #31 ) ) ;
#110 = DIRECTION ( 'NONE',  ( -3.491481338843133355E-15, 1.224646799147353207E-16, -1.000000000000000000 ) ) ;
#111 =( NAMED_UNIT ( * ) SI_UNIT ( $, .STERADIAN. ) SOLID_ANGLE_UNIT ( ) );
#112 = EDGE_CURVE ( 'NONE', #73, #73, #189, .T. ) ;
#113 = CALENDAR_DATE ( 2021, 25, 11 ) ;
#114 = AXIS2_PLACEMENT_3D ( 'NONE', #187, #110, #28 ) ;
#115 = COORDINATED_UNIVERSAL_TIME_OFFSET ( 1, 0, .AHEAD. ) ;
#116 = APPROVAL_STATUS ( 'not_yet_approved' ) ;
#117 = DATE_TIME_ROLE ( 'classification_date' ) ;
#118 = FACE_BOUND ( 'NONE', #72, .T. ) ;
#119 = LOCAL_TIME ( 14, 47, 10.00000000000000000, #6 ) ;
#120 = CC_DESIGN_PERSON_AND_ORGANIZATION_ASSIGNMENT ( #61, #176, ( #40 ) ) ;
#121 = ORGANIZATION ( 'UNSPECIFIED', 'UNSPECIFIED', '' ) ;
#122 = ORIENTED_EDGE ( 'NONE', *, *, #57, .F. ) ;
#123 = DIRECTION ( 'NONE',  ( -4.275831445896958607E-31, -1.000000000000000000, -1.224646799147353207E-16 ) ) ;
#124 = PLANE ( 'NONE',  #68 ) ;
#125 =( GEOMETRIC_REPRESENTATION_CONTEXT ( 3 ) GLOBAL_UNCERTAINTY_ASSIGNED_CONTEXT ( ( #166 ) ) GLOBAL_UNIT_ASSIGNED_CONTEXT ( ( #174, #201, #111 ) ) REPRESENTATION_CONTEXT ( 'NONE', 'WORKASPACE' ) );
#126 = CARTESIAN_POINT ( 'NONE',  ( 1.326762908760390423E-13, 1.199999999999995515, 38.00000000000000000 ) ) ;
#127 = DIRECTION ( 'NONE',  ( 3.491481338843133355E-15, -1.224646799147353207E-16, 1.000000000000000000 ) ) ;
#128 = PERSON_AND_ORGANIZATION ( #149, #121 ) ;
#129 = COORDINATED_UNIVERSAL_TIME_OFFSET ( 1, 0, .AHEAD. ) ;
#130 = SECURITY_CLASSIFICATION_LEVEL ( 'unclassified' ) ;
#131 = LOCAL_TIME ( 14, 47, 10.00000000000000000, #129 ) ;
#132 = DIRECTION ( 'NONE',  ( 0.0000000000000000000, 1.000000000000000000, 0.0000000000000000000 ) ) ;
#133 = APPROVAL ( #21, 'UNSPECIFIED' ) ;
#134 = CARTESIAN_POINT ( 'NONE',  ( 8.829237685930273190E-15, -3.096879697076762812E-16, 2.528794179050589452 ) ) ;
#135 = AXIS2_PLACEMENT_3D ( 'NONE', #97, #32, #82 ) ;
#136 = CARTESIAN_POINT ( 'NONE',  ( 1.326762908760390423E-13, 8.998558695971078593E-33, 38.00000000000000000 ) ) ;
#137 = PRODUCT_DEFINITION_SHAPE ( 'NONE', 'NONE',  #12 ) ;
#138 = ORIENTED_EDGE ( 'NONE', *, *, #112, .T. ) ;
#139 = CIRCLE ( 'NONE', #49, 0.04000000000000030614 ) ;
#140 = ORIENTED_EDGE ( 'NONE', *, *, #26, .F. ) ;
#141 = EDGE_CURVE ( 'NONE', #89, #89, #139, .T. ) ;
#142 = ORIENTED_EDGE ( 'NONE', *, *, #94, .F. ) ;
#143 = VERTEX_POINT ( 'NONE', #75 ) ;
#144 = EDGE_LOOP ( 'NONE', ( #138 ) ) ;
#145 = CARTESIAN_POINT ( 'NONE',  ( 8.829237685930273190E-15, 1.499999999999995337, 2.528794179050589452 ) ) ;
#146 = CALENDAR_DATE ( 2021, 25, 11 ) ;
#147 = PERSON_AND_ORGANIZATION ( #149, #121 ) ;
#148 = CONICAL_SURFACE ( 'NONE', #64, 1.200000000000000178, 0.7853981633974457255 ) ;
#149 = PERSON ( 'UNSPECIFIED', 'UNSPECIFIED', 'UNSPECIFIED', ('UNSPECIFIED'), ('UNSPECIFIED'), ('UNSPECIFIED') ) ;
#150 = CYLINDRICAL_SURFACE ( 'NONE', #135, 1.499999999999997780 ) ;
#151 = CC_DESIGN_PERSON_AND_ORGANIZATION_ASSIGNMENT ( #93, #79, ( #12 ) ) ;
#152 = DIRECTION ( 'NONE',  ( -3.491481338843133355E-15, 1.224646799147353207E-16, -1.000000000000000000 ) ) ;
#153 = AXIS2_PLACEMENT_3D ( 'NONE', #90, #127, #7 ) ;
#154 = PRODUCT ( '972401', '972401', '', ( #91 ) ) ;
#155 = PLANE ( 'NONE',  #11 ) ;
#156 = CIRCLE ( 'NONE', #78, 1.200000000000000178 ) ;
#157 = APPLICATION_CONTEXT ( 'configuration controlled 3d designs of mechanical parts and assemblies' ) ;
#158 = APPROVAL_PERSON_ORGANIZATION ( #147, #3, #164 ) ;
#159 = DIRECTION ( 'NONE',  ( 1.000000000000000000, 0.0000000000000000000, 0.0000000000000000000 ) ) ;
#160 = EDGE_LOOP ( 'NONE', ( #142 ) ) ;
#161 = PERSON_AND_ORGANIZATION_ROLE ( 'design_owner' ) ;
#162 = FACE_OUTER_BOUND ( 'NONE', #16, .T. ) ;
#163 = CALENDAR_DATE ( 2021, 25, 11 ) ;
#164 = APPROVAL_ROLE ( '' ) ;
#165 = PERSON_AND_ORGANIZATION ( #149, #121 ) ;
#166 = UNCERTAINTY_MEASURE_WITH_UNIT (LENGTH_MEASURE( 1.000000000000000082E-05 ), #174, 'distance_accuracy_value', 'NONE');
#167 = MANIFOLD_SOLID_BREP ( 'Corps-Déplacer/Copier1[2]', #42 ) ;
#168 = CONICAL_SURFACE ( 'NONE', #25, 1.499999999999995559, 0.5235987755982924874 ) ;
#169 = DIRECTION ( 'NONE',  ( 4.275831445896958607E-31, 1.000000000000000000, 1.224646799147353207E-16 ) ) ;
#170 = PLANE ( 'NONE',  #74 ) ;
#171 = ORIENTED_EDGE ( 'NONE', *, *, #57, .T. ) ;
#172 = VERTEX_POINT ( 'NONE', #126 ) ;
#173 = APPROVAL_PERSON_ORGANIZATION ( #181, #133, #191 ) ;
#174 =( LENGTH_UNIT ( ) NAMED_UNIT ( * ) SI_UNIT ( .MILLI., .METRE. ) );
#175 = FACE_OUTER_BOUND ( 'NONE', #71, .T. ) ;
#176 = PERSON_AND_ORGANIZATION_ROLE ( 'creator' ) ;
#177 = DATE_AND_TIME ( #113, #131 ) ;
#178 = SHAPE_DEFINITION_REPRESENTATION ( #137, #99 ) ;
#179 = DATE_AND_TIME ( #23, #183 ) ;
#180 = SECURITY_CLASSIFICATION ( '', '', #130 ) ;
#181 = PERSON_AND_ORGANIZATION ( #149, #121 ) ;
#182 = DIRECTION ( 'NONE',  ( -3.491481338843133355E-15, 1.224646799147353207E-16, -1.000000000000000000 ) ) ;
#183 = LOCAL_TIME ( 14, 47, 10.00000000000000000, #13 ) ;
#184 = DIRECTION ( 'NONE',  ( -3.491481338843133355E-15, 1.224646799147353207E-16, -1.000000000000000000 ) ) ;
#185 = APPROVAL ( #190, 'UNSPECIFIED' ) ;
#186 = EDGE_LOOP ( 'NONE', ( #200 ) ) ;
#187 = CARTESIAN_POINT ( 'NONE',  ( 8.829237685930273190E-15, -3.096879697076762812E-16, 2.528794179050589452 ) ) ;
#188 = CARTESIAN_POINT ( 'NONE',  ( -8.551662891793982844E-33, 2.999519565323738394E-34, -2.449293598294725258E-18 ) ) ;
#189 = CIRCLE ( 'NONE', #114, 1.499999999999995559 ) ;
#190 = APPROVAL_STATUS ( 'not_yet_approved' ) ;
#191 = APPROVAL_ROLE ( '' ) ;
#192 = AXIS2_PLACEMENT_3D ( 'NONE', #76, #47, #159 ) ;
#193 = PERSON_AND_ORGANIZATION ( #149, #121 ) ;
#194 = DIRECTION ( 'NONE',  ( 3.491481338843133355E-15, -1.224646799147353207E-16, 1.000000000000000000 ) ) ;
#195 = FACE_BOUND ( 'NONE', #109, .T. ) ;
#196 = CC_DESIGN_PERSON_AND_ORGANIZATION_ASSIGNMENT ( #128, #161, ( #154 ) ) ;
#197 = DIRECTION ( 'NONE',  ( 0.0000000000000000000, -1.000000000000000000, 0.0000000000000000000 ) ) ;
#198 = CARTESIAN_POINT ( 'NONE',  ( 1.316288464743861212E-13, -4.616918432785521081E-15, 37.69999999999999574 ) ) ;
#199 = AXIS2_PLACEMENT_3D ( 'NONE', #41, #10, #132 ) ;
#200 = ORIENTED_EDGE ( 'NONE', *, *, #141, .T. ) ;
#201 =( NAMED_UNIT ( * ) PLANE_ANGLE_UNIT ( ) SI_UNIT ( $, .RADIAN. ) );
#202 = CARTESIAN_POINT ( 'NONE',  ( -1.710332578358796569E-32, 5.999039130647476788E-34, -4.898587196589450515E-18 ) ) ;
#203 = VERTEX_POINT ( 'NONE', #59 ) ;
ENDSEC;
END-ISO-10303-21;
