ISO-10303-21;
HEADER;
FILE_DESCRIPTION (( 'STEP AP203' ),
    '1' );
FILE_NAME ('972400.step',
    '2021-11-25T13:42:41',
    ( '' ),
    ( '' ),
    'SwSTEP 2.0',
    'SolidWorks 2019',
    '' );
FILE_SCHEMA (( 'CONFIG_CONTROL_DESIGN' ));
ENDSEC;

DATA;
#1 = APPROVAL_STATUS ( 'not_yet_approved' ) ;
#2 = AXIS2_PLACEMENT_3D ( 'NONE', #194, #135, #36 ) ;
#3 = DESIGN_CONTEXT ( 'detailed design', #4, 'design' ) ;
#4 = APPLICATION_CONTEXT ( 'configuration controlled 3d designs of mechanical parts and assemblies' ) ;
#5 = PRODUCT_DEFINITION ( 'UNKNOWN', '', #122, #3 ) ;
#6 = APPROVAL_STATUS ( 'not_yet_approved' ) ;
#7 = PERSON_AND_ORGANIZATION ( #165, #46 ) ;
#8 = PERSON_AND_ORGANIZATION ( #165, #46 ) ;
#9 = AXIS2_PLACEMENT_3D ( 'NONE', #166, #155, #143 ) ;
#10 = CARTESIAN_POINT ( 'NONE',  ( 1.316288464743861212E-13, 1.499999999999994005, 37.69999999999999574 ) ) ;
#11 = DATE_AND_TIME ( #27, #60 ) ;
#12 = EDGE_LOOP ( 'NONE', ( #44 ) ) ;
#13 = VERTEX_POINT ( 'NONE', #81 ) ;
#14 = ORIENTED_EDGE ( 'NONE', *, *, #24, .T. ) ;
#15 = CIRCLE ( 'NONE', #159, 1.499999999999995781 ) ;
#16 = DIRECTION ( 'NONE',  ( 0.0000000000000000000, 1.000000000000000000, 0.0000000000000000000 ) ) ;
#17 = SECURITY_CLASSIFICATION_LEVEL ( 'unclassified' ) ;
#18 = CALENDAR_DATE ( 2021, 25, 11 ) ;
#19 = APPROVAL_DATE_TIME ( #106, #202 ) ;
#20 = EDGE_CURVE ( 'NONE', #77, #77, #25, .T. ) ;
#21 = APPROVAL_PERSON_ORGANIZATION ( #177, #99, #76 ) ;
#22 =( NAMED_UNIT ( * ) SI_UNIT ( $, .STERADIAN. ) SOLID_ANGLE_UNIT ( ) );
#23 = FACE_OUTER_BOUND ( 'NONE', #28, .T. ) ;
#24 = EDGE_CURVE ( 'NONE', #72, #72, #15, .T. ) ;
#25 = CIRCLE ( 'NONE', #171, 1.499999999999998446 ) ;
#26 = AXIS2_PLACEMENT_3D ( 'NONE', #185, #111, #183 ) ;
#27 = CALENDAR_DATE ( 2021, 25, 11 ) ;
#28 = EDGE_LOOP ( 'NONE', ( #43 ) ) ;
#29 = ADVANCED_FACE ( 'NONE', ( #32, #98 ), #101, .T. ) ;
#30 = MECHANICAL_CONTEXT ( 'NONE', #47, 'mechanical' ) ;
#31 = PERSON_AND_ORGANIZATION_ROLE ( 'design_supplier' ) ;
#32 = FACE_OUTER_BOUND ( 'NONE', #130, .T. ) ;
#33 = CC_DESIGN_PERSON_AND_ORGANIZATION_ASSIGNMENT ( #8, #138, ( #5 ) ) ;
#34 = APPROVAL_ROLE ( '' ) ;
#35 = APPROVAL_PERSON_ORGANIZATION ( #52, #140, #87 ) ;
#36 = DIRECTION ( 'NONE',  ( -4.275831445896958607E-31, -1.000000000000000000, -1.224646799147353207E-16 ) ) ;
#37 = CARTESIAN_POINT ( 'NONE',  ( -2.629606126413611988E-32, 9.223416691087703517E-34, -7.531491281820527677E-18 ) ) ;
#38 = LOCAL_TIME ( 14, 42, 41.00000000000000000, #49 ) ;
#39 = DIRECTION ( 'NONE',  ( -3.491481338843133355E-15, 1.224646799147353207E-16, -1.000000000000000000 ) ) ;
#40 = FACE_OUTER_BOUND ( 'NONE', #117, .T. ) ;
#41 = DIRECTION ( 'NONE',  ( 3.491481338843133355E-15, -1.224646799147353207E-16, 1.000000000000000000 ) ) ;
#42 = PRODUCT ( '972400', '972400', '', ( #30 ) ) ;
#43 = ORIENTED_EDGE ( 'NONE', *, *, #62, .F. ) ;
#44 = ORIENTED_EDGE ( 'NONE', *, *, #24, .F. ) ;
#45 = APPROVAL_DATE_TIME ( #158, #99 ) ;
#46 = ORGANIZATION ( 'UNSPECIFIED', 'UNSPECIFIED', '' ) ;
#47 = APPLICATION_CONTEXT ( 'configuration controlled 3d designs of mechanical parts and assemblies' ) ;
#48 = DIRECTION ( 'NONE',  ( 4.275831445896958607E-31, 1.000000000000000000, 1.224646799147353454E-16 ) ) ;
#49 = COORDINATED_UNIVERSAL_TIME_OFFSET ( 1, 0, .AHEAD. ) ;
#50 = AXIS2_PLACEMENT_3D ( 'NONE', #181, #61, #162 ) ;
#51 = CC_DESIGN_PERSON_AND_ORGANIZATION_ASSIGNMENT ( #149, #65, ( #122 ) ) ;
#52 = PERSON_AND_ORGANIZATION ( #165, #46 ) ;
#53 = DATE_AND_TIME ( #18, #167 ) ;
#54 = AXIS2_PLACEMENT_3D ( 'NONE', #95, #93, #201 ) ;
#55 = FACE_OUTER_BOUND ( 'NONE', #12, .T. ) ;
#56 = ADVANCED_FACE ( 'NONE', ( #134, #102 ), #174, .T. ) ;
#57 = CC_DESIGN_APPROVAL ( #99, ( #196 ) ) ;
#58 = MANIFOLD_SOLID_BREP ( 'Corps-Déplacer/Copier1[2]', #152 ) ;
#59 = EDGE_LOOP ( 'NONE', ( #129 ) ) ;
#60 = LOCAL_TIME ( 14, 42, 41.00000000000000000, #195 ) ;
#61 = DIRECTION ( 'NONE',  ( 0.0000000000000000000, 0.0000000000000000000, 1.000000000000000000 ) ) ;
#62 = EDGE_CURVE ( 'NONE', #157, #157, #80, .T. ) ;
#63 = DIRECTION ( 'NONE',  ( -3.491481338843133355E-15, 1.224646799147353207E-16, -1.000000000000000000 ) ) ;
#64 = PLANE ( 'NONE',  #2 ) ;
#65 = PERSON_AND_ORGANIZATION_ROLE ( 'creator' ) ;
#66 = DIRECTION ( 'NONE',  ( -3.491481338843133355E-15, 1.224646799147353207E-16, -1.000000000000000000 ) ) ;
#67 = ADVANCED_FACE ( 'NONE', ( #89 ), #64, .F. ) ;
#68 = DIRECTION ( 'NONE',  ( -4.275831445896958607E-31, -1.000000000000000000, -1.224646799147353207E-16 ) ) ;
#69 = CLOSED_SHELL ( 'NONE', ( #67, #29, #56, #197 ) ) ;
#70 = PERSON_AND_ORGANIZATION_ROLE ( 'design_owner' ) ;
#71 = ADVANCED_FACE ( 'NONE', ( #105 ), #125, .F. ) ;
#72 = VERTEX_POINT ( 'NONE', #144 ) ;
#73 = PRODUCT_RELATED_PRODUCT_CATEGORY ( 'detail', '', ( #42 ) ) ;
#74 = CIRCLE ( 'NONE', #26, 0.04000000000000030614 ) ;
#75 = PLANE ( 'NONE',  #54 ) ;
#76 = APPROVAL_ROLE ( '' ) ;
#77 = VERTEX_POINT ( 'NONE', #10 ) ;
#78 = EDGE_LOOP ( 'NONE', ( #96 ) ) ;
#79 = APPLICATION_PROTOCOL_DEFINITION ( 'international standard', 'config_control_design', 1994, #47 ) ;
#80 = CIRCLE ( 'NONE', #92, 1.199999999999998623 ) ;
#81 = CARTESIAN_POINT ( 'NONE',  ( 8.829237685930271612E-15, 1.499999999999995559, 2.528794179050589008 ) ) ;
#82 = PRODUCT_DEFINITION_SHAPE ( 'NONE', 'NONE',  #5 ) ;
#83 = ORIENTED_EDGE ( 'NONE', *, *, #191, .F. ) ;
#84 = EDGE_CURVE ( 'NONE', #169, #169, #74, .T. ) ;
#85 = DIRECTION ( 'NONE',  ( 0.0000000000000000000, 1.000000000000000000, 0.0000000000000000000 ) ) ;
#86 = DIRECTION ( 'NONE',  ( 0.0000000000000000000, 1.000000000000000000, 0.0000000000000000000 ) ) ;
#87 = APPROVAL_ROLE ( '' ) ;
#88 = CALENDAR_DATE ( 2021, 25, 11 ) ;
#89 = FACE_OUTER_BOUND ( 'NONE', #192, .T. ) ;
#90 = CARTESIAN_POINT ( 'NONE',  ( -3.548879674468427680E-32, 0.04000000000000030614, -1.016439536705160407E-17 ) ) ;
#91 = AXIS2_PLACEMENT_3D ( 'NONE', #37, #156, #68 ) ;
#92 = AXIS2_PLACEMENT_3D ( 'NONE', #148, #66, #86 ) ;
#93 = DIRECTION ( 'NONE',  ( -3.491481338843133355E-15, 1.224646799147353207E-16, -1.000000000000000000 ) ) ;
#94 = CONICAL_SURFACE ( 'NONE', #133, 1.499999999999995781, 0.5235987755982927094 ) ;
#95 = CARTESIAN_POINT ( 'NONE',  ( 1.326762908760390423E-13, 8.998558695971067645E-33, 38.00000000000000000 ) ) ;
#96 = ORIENTED_EDGE ( 'NONE', *, *, #84, .T. ) ;
#97 = PERSON_AND_ORGANIZATION ( #165, #46 ) ;
#98 = FACE_OUTER_BOUND ( 'NONE', #132, .T. ) ;
#99 = APPROVAL ( #1, 'UNSPECIFIED' ) ;
#100 = ORIENTED_EDGE ( 'NONE', *, *, #20, .F. ) ;
#101 = CYLINDRICAL_SURFACE ( 'NONE', #147, 1.499999999999996891 ) ;
#102 = FACE_BOUND ( 'NONE', #59, .T. ) ;
#103 = APPROVAL_STATUS ( 'not_yet_approved' ) ;
#104 = LOCAL_TIME ( 14, 42, 41.00000000000000000, #137 ) ;
#105 = FACE_OUTER_BOUND ( 'NONE', #78, .T. ) ;
#106 = DATE_AND_TIME ( #88, #172 ) ;
#107 =( LENGTH_UNIT ( ) NAMED_UNIT ( * ) SI_UNIT ( .MILLI., .METRE. ) );
#108 = ADVANCED_FACE ( 'NONE', ( #55 ), #170, .T. ) ;
#109 =( NAMED_UNIT ( * ) PLANE_ANGLE_UNIT ( ) SI_UNIT ( $, .RADIAN. ) );
#110 = DIRECTION ( 'NONE',  ( 0.0000000000000000000, -1.000000000000000000, 0.0000000000000000000 ) ) ;
#111 = DIRECTION ( 'NONE',  ( -3.491481338843133355E-15, 1.224646799147353207E-16, -1.000000000000000000 ) ) ;
#112 = CIRCLE ( 'NONE', #188, 1.499999999999995781 ) ;
#113 = ORIENTED_EDGE ( 'NONE', *, *, #84, .F. ) ;
#114 = CALENDAR_DATE ( 2021, 25, 11 ) ;
#115 = CARTESIAN_POINT ( 'NONE',  ( 8.829237685930271612E-15, -3.096879697076762319E-16, 2.528794179050589008 ) ) ;
#116 = PERSON_AND_ORGANIZATION_ROLE ( 'classification_officer' ) ;
#117 = EDGE_LOOP ( 'NONE', ( #14 ) ) ;
#118 = CC_DESIGN_PERSON_AND_ORGANIZATION_ASSIGNMENT ( #7, #70, ( #42 ) ) ;
#119 = DIRECTION ( 'NONE',  ( 0.0000000000000000000, 1.000000000000000000, 0.0000000000000000000 ) ) ;
#120 = AXIS2_PLACEMENT_3D ( 'NONE', #121, #178, #16 ) ;
#121 = CARTESIAN_POINT ( 'NONE',  ( 1.326762908760390423E-13, -4.653657836759941941E-15, 38.00000000000000000 ) ) ;
#122 = PRODUCT_DEFINITION_FORMATION_WITH_SPECIFIED_SOURCE ( 'ANY', '', #42, .NOT_KNOWN. ) ;
#123 = DATE_AND_TIME ( #189, #104 ) ;
#124 = CC_DESIGN_APPROVAL ( #140, ( #5 ) ) ;
#125 = PLANE ( 'NONE',  #91 ) ;
#126 = ADVANCED_FACE ( 'NONE', ( #184, #40 ), #94, .T. ) ;
#127 = DATE_TIME_ROLE ( 'classification_date' ) ;
#128 = DIRECTION ( 'NONE',  ( -3.491481338843133355E-15, 1.224646799147353207E-16, -1.000000000000000000 ) ) ;
#129 = ORIENTED_EDGE ( 'NONE', *, *, #62, .T. ) ;
#130 = EDGE_LOOP ( 'NONE', ( #83 ) ) ;
#131 = MANIFOLD_SOLID_BREP ( 'Corps-Déplacer/Copier1[1]', #69 ) ;
#132 = EDGE_LOOP ( 'NONE', ( #145 ) ) ;
#133 = AXIS2_PLACEMENT_3D ( 'NONE', #154, #41, #110 ) ;
#134 = FACE_OUTER_BOUND ( 'NONE', #203, .T. ) ;
#135 = DIRECTION ( 'NONE',  ( 3.491481338843133355E-15, -1.224646799147353207E-16, 1.000000000000000000 ) ) ;
#136 = PERSON_AND_ORGANIZATION ( #165, #46 ) ;
#137 = COORDINATED_UNIVERSAL_TIME_OFFSET ( 1, 0, .AHEAD. ) ;
#138 = PERSON_AND_ORGANIZATION_ROLE ( 'creator' ) ;
#139 = COORDINATED_UNIVERSAL_TIME_OFFSET ( 1, 0, .AHEAD. ) ;
#140 = APPROVAL ( #103, 'UNSPECIFIED' ) ;
#141 = CARTESIAN_POINT ( 'NONE',  ( 1.326762908760390423E-13, 1.199999999999993960, 38.00000000000000000 ) ) ;
#142 = APPROVAL_PERSON_ORGANIZATION ( #164, #202, #34 ) ;
#143 = DIRECTION ( 'NONE',  ( -4.275831445896958607E-31, -1.000000000000000000, -1.224646799147353207E-16 ) ) ;
#144 = CARTESIAN_POINT ( 'NONE',  ( 8.829237685930271612E-15, 1.499999999999995559, 2.528794179050589008 ) ) ;
#145 = ORIENTED_EDGE ( 'NONE', *, *, #20, .T. ) ;
#146 = EDGE_LOOP ( 'NONE', ( #113 ) ) ;
#147 = AXIS2_PLACEMENT_3D ( 'NONE', #193, #63, #48 ) ;
#148 = CARTESIAN_POINT ( 'NONE',  ( 1.326762908760390423E-13, -4.653657836759941941E-15, 38.00000000000000000 ) ) ;
#149 = PERSON_AND_ORGANIZATION ( #165, #46 ) ;
#150 = APPLICATION_PROTOCOL_DEFINITION ( 'international standard', 'config_control_design', 1994, #4 ) ;
#151 = APPROVAL_DATE_TIME ( #123, #140 ) ;
#152 = CLOSED_SHELL ( 'NONE', ( #71, #126, #108 ) ) ;
#153 = CC_DESIGN_APPROVAL ( #202, ( #122 ) ) ;
#154 = CARTESIAN_POINT ( 'NONE',  ( 8.829237685930271612E-15, -3.096879697076762319E-16, 2.528794179050589008 ) ) ;
#155 = DIRECTION ( 'NONE',  ( 3.491481338843133355E-15, -1.224646799147353207E-16, 1.000000000000000000 ) ) ;
#156 = DIRECTION ( 'NONE',  ( 3.491481338843133355E-15, -1.224646799147353207E-16, 1.000000000000000000 ) ) ;
#157 = VERTEX_POINT ( 'NONE', #141 ) ;
#158 = DATE_AND_TIME ( #114, #38 ) ;
#159 = AXIS2_PLACEMENT_3D ( 'NONE', #115, #175, #85 ) ;
#160 =( GEOMETRIC_REPRESENTATION_CONTEXT ( 3 ) GLOBAL_UNCERTAINTY_ASSIGNED_CONTEXT ( ( #176 ) ) GLOBAL_UNIT_ASSIGNED_CONTEXT ( ( #107, #109, #22 ) ) REPRESENTATION_CONTEXT ( 'NONE', 'WORKASPACE' ) );
#161 = CC_DESIGN_PERSON_AND_ORGANIZATION_ASSIGNMENT ( #97, #116, ( #196 ) ) ;
#162 = DIRECTION ( 'NONE',  ( 1.000000000000000000, 0.0000000000000000000, 0.0000000000000000000 ) ) ;
#163 = CC_DESIGN_PERSON_AND_ORGANIZATION_ASSIGNMENT ( #136, #31, ( #122 ) ) ;
#164 = PERSON_AND_ORGANIZATION ( #165, #46 ) ;
#165 = PERSON ( 'UNSPECIFIED', 'UNSPECIFIED', 'UNSPECIFIED', ('UNSPECIFIED'), ('UNSPECIFIED'), ('UNSPECIFIED') ) ;
#166 = CARTESIAN_POINT ( 'NONE',  ( 8.829237685930268457E-15, -2.924505752208375717E-15, 2.528794179050588120 ) ) ;
#167 = LOCAL_TIME ( 14, 42, 41.00000000000000000, #198 ) ;
#168 = DIRECTION ( 'NONE',  ( 0.0000000000000000000, 1.000000000000000000, 0.0000000000000000000 ) ) ;
#169 = VERTEX_POINT ( 'NONE', #90 ) ;
#170 = PLANE ( 'NONE',  #9 ) ;
#171 = AXIS2_PLACEMENT_3D ( 'NONE', #173, #128, #119 ) ;
#172 = LOCAL_TIME ( 14, 42, 41.00000000000000000, #139 ) ;
#173 = CARTESIAN_POINT ( 'NONE',  ( 1.316288464743861212E-13, -4.616918432785521081E-15, 37.69999999999999574 ) ) ;
#174 = CONICAL_SURFACE ( 'NONE', #120, 1.199999999999998623, 0.7853981633974453924 ) ;
#175 = DIRECTION ( 'NONE',  ( -3.491481338843133355E-15, 1.224646799147353207E-16, -1.000000000000000000 ) ) ;
#176 = UNCERTAINTY_MEASURE_WITH_UNIT (LENGTH_MEASURE( 1.000000000000000082E-05 ), #107, 'distance_accuracy_value', 'NONE');
#177 = PERSON_AND_ORGANIZATION ( #165, #46 ) ;
#178 = DIRECTION ( 'NONE',  ( -3.491481338843133355E-15, 1.224646799147353207E-16, -1.000000000000000000 ) ) ;
#179 = SHAPE_DEFINITION_REPRESENTATION ( #82, #180 ) ;
#180 = ADVANCED_BREP_SHAPE_REPRESENTATION ( '972400', ( #131, #58, #50 ), #160 ) ;
#181 = CARTESIAN_POINT ( 'NONE',  ( 0.0000000000000000000, 0.0000000000000000000, 0.0000000000000000000 ) ) ;
#182 = DATE_TIME_ROLE ( 'creation_date' ) ;
#183 = DIRECTION ( 'NONE',  ( 4.275831445896957731E-31, 1.000000000000000000, 1.224646799147352961E-16 ) ) ;
#184 = FACE_BOUND ( 'NONE', #146, .T. ) ;
#185 = CARTESIAN_POINT ( 'NONE',  ( -5.259212252827223975E-32, 1.844683338217540703E-33, -1.506298256364105535E-17 ) ) ;
#186 = CC_DESIGN_DATE_AND_TIME_ASSIGNMENT ( #11, #127, ( #196 ) ) ;
#187 = CARTESIAN_POINT ( 'NONE',  ( 8.829237685930271612E-15, -3.096879697076762319E-16, 2.528794179050589008 ) ) ;
#188 = AXIS2_PLACEMENT_3D ( 'NONE', #187, #39, #168 ) ;
#189 = CALENDAR_DATE ( 2021, 25, 11 ) ;
#190 = ORIENTED_EDGE ( 'NONE', *, *, #191, .T. ) ;
#191 = EDGE_CURVE ( 'NONE', #13, #13, #112, .T. ) ;
#192 = EDGE_LOOP ( 'NONE', ( #190 ) ) ;
#193 = CARTESIAN_POINT ( 'NONE',  ( 0.0000000000000000000, 0.0000000000000000000, 0.0000000000000000000 ) ) ;
#194 = CARTESIAN_POINT ( 'NONE',  ( 8.829237685930268457E-15, -2.924505752208375717E-15, 2.528794179050588120 ) ) ;
#195 = COORDINATED_UNIVERSAL_TIME_OFFSET ( 1, 0, .AHEAD. ) ;
#196 = SECURITY_CLASSIFICATION ( '', '', #17 ) ;
#197 = ADVANCED_FACE ( 'NONE', ( #23 ), #75, .F. ) ;
#198 = COORDINATED_UNIVERSAL_TIME_OFFSET ( 1, 0, .AHEAD. ) ;
#199 = CC_DESIGN_DATE_AND_TIME_ASSIGNMENT ( #53, #182, ( #5 ) ) ;
#200 = CC_DESIGN_SECURITY_CLASSIFICATION ( #196, ( #122 ) ) ;
#201 = DIRECTION ( 'NONE',  ( 4.275831445896958607E-31, 1.000000000000000000, 1.224646799147353207E-16 ) ) ;
#202 = APPROVAL ( #6, 'UNSPECIFIED' ) ;
#203 = EDGE_LOOP ( 'NONE', ( #100 ) ) ;
ENDSEC;
END-ISO-10303-21;
