ISO-10303-21;
HEADER;
FILE_DESCRIPTION (( 'STEP AP203' ),
    '1' );
FILE_NAME ('972014.step',
    '2021-12-01T10:40:33',
    ( '' ),
    ( '' ),
    'SwSTEP 2.0',
    'SolidWorks 2019',
    '' );
FILE_SCHEMA (( 'CONFIG_CONTROL_DESIGN' ));
ENDSEC;

DATA;
#1 = DIRECTION ( 'NONE',  ( -4.275831445896958607E-31, -1.000000000000000000, -1.224646799147353207E-16 ) ) ;
#2 = APPROVAL_ROLE ( '' ) ;
#3 = DIRECTION ( 'NONE',  ( 4.275831445896958607E-31, 1.000000000000000000, 1.224646799147353207E-16 ) ) ;
#4 = EDGE_LOOP ( 'NONE', ( #244 ) ) ;
#5 = AXIS2_PLACEMENT_3D ( 'NONE', #36, #16, #112 ) ;
#6 = ORIENTED_EDGE ( 'NONE', *, *, #270, .F. ) ;
#7 = EDGE_LOOP ( 'NONE', ( #122 ) ) ;
#8 = ADVANCED_FACE ( 'NONE', ( #99 ), #87, .T. ) ;
#9 = EDGE_LOOP ( 'NONE', ( #246 ) ) ;
#10 =( NAMED_UNIT ( * ) PLANE_ANGLE_UNIT ( ) SI_UNIT ( $, .RADIAN. ) );
#11 = EDGE_LOOP ( 'NONE', ( #174 ) ) ;
#12 =( GEOMETRIC_REPRESENTATION_CONTEXT ( 3 ) GLOBAL_UNCERTAINTY_ASSIGNED_CONTEXT ( ( #276 ) ) GLOBAL_UNIT_ASSIGNED_CONTEXT ( ( #104, #10, #267 ) ) REPRESENTATION_CONTEXT ( 'NONE', 'WORKASPACE' ) );
#13 = DIRECTION ( 'NONE',  ( 0.0000000000000000000, 1.000000000000000000, 0.0000000000000000000 ) ) ;
#14 = DIRECTION ( 'NONE',  ( -4.275831445896958607E-31, -1.000000000000000000, -1.224646799147353207E-16 ) ) ;
#15 = CC_DESIGN_PERSON_AND_ORGANIZATION_ASSIGNMENT ( #164, #210, ( #220 ) ) ;
#16 = DIRECTION ( 'NONE',  ( -3.491481338843133355E-15, 1.224646799147353207E-16, -1.000000000000000000 ) ) ;
#17 = APPROVAL_PERSON_ORGANIZATION ( #190, #196, #299 ) ;
#18 = PERSON_AND_ORGANIZATION_ROLE ( 'creator' ) ;
#19 = CARTESIAN_POINT ( 'NONE',  ( 2.158386745567707920E-14, -7.570601595016355358E-16, 6.181865334794736100 ) ) ;
#20 = CARTESIAN_POINT ( 'NONE',  ( 4.660183614865709749E-14, -1.634572375883073005E-15, 13.34729635533384773 ) ) ;
#21 = ADVANCED_FACE ( 'NONE', ( #108 ), #189, .F. ) ;
#22 = AXIS2_PLACEMENT_3D ( 'NONE', #191, #293, #166 ) ;
#23 = DATE_AND_TIME ( #89, #102 ) ;
#24 = DIRECTION ( 'NONE',  ( -3.491481338843133355E-15, 1.224646799147353207E-16, -1.000000000000000000 ) ) ;
#25 = CARTESIAN_POINT ( 'NONE',  ( 0.0000000000000000000, 0.0000000000000000000, 0.0000000000000000000 ) ) ;
#26 = EDGE_LOOP ( 'NONE', ( #28 ) ) ;
#27 = CIRCLE ( 'NONE', #71, 1.500000000000003331 ) ;
#28 = ORIENTED_EDGE ( 'NONE', *, *, #194, .T. ) ;
#29 = CARTESIAN_POINT ( 'NONE',  ( 6.520732687838371458E-14, 1.499999999999995559, 18.67612069208122705 ) ) ;
#30 = EDGE_LOOP ( 'NONE', ( #200 ) ) ;
#31 = DIRECTION ( 'NONE',  ( 0.0000000000000000000, -1.000000000000000000, 0.0000000000000000000 ) ) ;
#32 = CARTESIAN_POINT ( 'NONE',  ( 8.728703347107833388E-16, 0.6349999999999992317, 0.2500000000000000000 ) ) ;
#33 = CONICAL_SURFACE ( 'NONE', #76, 0.6349999999999992317, 0.5235987755982922653 ) ;
#34 = EDGE_CURVE ( 'NONE', #201, #201, #90, .T. ) ;
#35 = COORDINATED_UNIVERSAL_TIME_OFFSET ( 1, 0, .AHEAD. ) ;
#36 = CARTESIAN_POINT ( 'NONE',  ( 4.538925740496073362E-14, -1.734723475976807094E-15, 13.00000000000000000 ) ) ;
#37 = APPROVAL_DATE_TIME ( #253, #196 ) ;
#38 = FACE_OUTER_BOUND ( 'NONE', #47, .T. ) ;
#39 = CC_DESIGN_APPROVAL ( #196, ( #151 ) ) ;
#40 = CARTESIAN_POINT ( 'NONE',  ( 0.0000000000000000000, 0.0000000000000000000, 0.0000000000000000000 ) ) ;
#41 = EDGE_CURVE ( 'NONE', #72, #72, #255, .T. ) ;
#42 = DIRECTION ( 'NONE',  ( -3.491481338843133355E-15, 1.224646799147353207E-16, -1.000000000000000000 ) ) ;
#43 = ADVANCED_FACE ( 'NONE', ( #161, #85 ), #209, .T. ) ;
#44 = DIRECTION ( 'NONE',  ( -3.491481338843133355E-15, 1.224646799147353207E-16, -1.000000000000000000 ) ) ;
#45 = CIRCLE ( 'NONE', #239, 0.4906624327025950194 ) ;
#46 = EDGE_CURVE ( 'NONE', #271, #271, #165, .T. ) ;
#47 = EDGE_LOOP ( 'NONE', ( #243 ) ) ;
#48 = VERTEX_POINT ( 'NONE', #32 ) ;
#49 = CARTESIAN_POINT ( 'NONE',  ( -1.892735826383160919E-31, 0.4906624327025950194, -5.421010862427522170E-17 ) ) ;
#50 = AXIS2_PLACEMENT_3D ( 'NONE', #40, #301, #88 ) ;
#51 = CARTESIAN_POINT ( 'NONE',  ( 4.660183614865709749E-14, 0.5603844939755802113, 13.34729635533384773 ) ) ;
#52 = DIRECTION ( 'NONE',  ( -3.491481338843133355E-15, 1.224646799147353207E-16, -1.000000000000000000 ) ) ;
#53 = ORIENTED_EDGE ( 'NONE', *, *, #69, .F. ) ;
#54 = FACE_BOUND ( 'NONE', #217, .T. ) ;
#55 = CC_DESIGN_PERSON_AND_ORGANIZATION_ASSIGNMENT ( #86, #279, ( #151 ) ) ;
#56 = AXIS2_PLACEMENT_3D ( 'NONE', #106, #274, #60 ) ;
#57 = CC_DESIGN_SECURITY_CLASSIFICATION ( #248, ( #151 ) ) ;
#58 = DIRECTION ( 'NONE',  ( -3.491481338843133355E-15, 1.224646799147353207E-16, -1.000000000000000000 ) ) ;
#59 = COORDINATED_UNIVERSAL_TIME_OFFSET ( 1, 0, .AHEAD. ) ;
#60 = DIRECTION ( 'NONE',  ( 0.0000000000000000000, 1.000000000000000000, 0.0000000000000000000 ) ) ;
#61 = COORDINATED_UNIVERSAL_TIME_OFFSET ( 1, 0, .AHEAD. ) ;
#62 = FACE_OUTER_BOUND ( 'NONE', #285, .T. ) ;
#63 = SECURITY_CLASSIFICATION_LEVEL ( 'unclassified' ) ;
#64 = DIRECTION ( 'NONE',  ( 3.491481338843133355E-15, -1.224646799147353207E-16, 1.000000000000000000 ) ) ;
#65 = CONICAL_SURFACE ( 'NONE', #258, 1.200000000000003286, 0.7853981633974453924 ) ;
#66 = AXIS2_PLACEMENT_3D ( 'NONE', #241, #100, #31 ) ;
#67 = APPROVAL_STATUS ( 'not_yet_approved' ) ;
#68 = DATE_TIME_ROLE ( 'classification_date' ) ;
#69 = EDGE_CURVE ( 'NONE', #224, #224, #94, .T. ) ;
#70 = CC_DESIGN_PERSON_AND_ORGANIZATION_ASSIGNMENT ( #282, #171, ( #248 ) ) ;
#71 = AXIS2_PLACEMENT_3D ( 'NONE', #156, #229, #291 ) ;
#72 = VERTEX_POINT ( 'NONE', #263 ) ;
#73 = EDGE_LOOP ( 'NONE', ( #74 ) ) ;
#74 = ORIENTED_EDGE ( 'NONE', *, *, #34, .F. ) ;
#75 = CARTESIAN_POINT ( 'NONE',  ( 2.158386745567707920E-14, 0.5299999999999983613, 6.181865334794736100 ) ) ;
#76 = AXIS2_PLACEMENT_3D ( 'NONE', #169, #126, #154 ) ;
#77 = ORIENTED_EDGE ( 'NONE', *, *, #46, .F. ) ;
#78 = FACE_BOUND ( 'NONE', #149, .T. ) ;
#79 = FACE_OUTER_BOUND ( 'NONE', #30, .T. ) ;
#80 = FACE_OUTER_BOUND ( 'NONE', #9, .T. ) ;
#81 = FACE_OUTER_BOUND ( 'NONE', #98, .T. ) ;
#82 = CIRCLE ( 'NONE', #22, 0.5299999999999991385 ) ;
#83 = LOCAL_TIME ( 11, 40, 33.00000000000000000, #35 ) ;
#84 = DATE_TIME_ROLE ( 'creation_date' ) ;
#85 = FACE_OUTER_BOUND ( 'NONE', #177, .T. ) ;
#86 = PERSON_AND_ORGANIZATION ( #290, #262 ) ;
#87 = PLANE ( 'NONE',  #116 ) ;
#88 = DIRECTION ( 'NONE',  ( 1.000000000000000000, 0.0000000000000000000, 0.0000000000000000000 ) ) ;
#89 = CALENDAR_DATE ( 2021, 1, 12 ) ;
#90 = CIRCLE ( 'NONE', #264, 0.6350000000000000089 ) ;
#91 = LOCAL_TIME ( 11, 40, 33.00000000000000000, #61 ) ;
#92 = DIRECTION ( 'NONE',  ( 4.275831445896958607E-31, 1.000000000000000000, 1.224646799147353207E-16 ) ) ;
#93 = ORIENTED_EDGE ( 'NONE', *, *, #222, .T. ) ;
#94 = CIRCLE ( 'NONE', #141, 0.5603844939755818766 ) ;
#95 = DIRECTION ( 'NONE',  ( 4.275831445896958607E-31, 1.000000000000000000, 1.224646799147353207E-16 ) ) ;
#96 = CC_DESIGN_PERSON_AND_ORGANIZATION_ASSIGNMENT ( #135, #18, ( #151 ) ) ;
#97 = ORIENTED_EDGE ( 'NONE', *, *, #120, .T. ) ;
#98 = EDGE_LOOP ( 'NONE', ( #150 ) ) ;
#99 = FACE_OUTER_BOUND ( 'NONE', #7, .T. ) ;
#100 = DIRECTION ( 'NONE',  ( 3.491481338843133355E-15, -1.224646799147353207E-16, 1.000000000000000000 ) ) ;
#101 = CIRCLE ( 'NONE', #124, 0.6349999999999992317 ) ;
#102 = LOCAL_TIME ( 11, 40, 33.00000000000000000, #119 ) ;
#103 = ORIENTED_EDGE ( 'NONE', *, *, #275, .T. ) ;
#104 =( LENGTH_UNIT ( ) NAMED_UNIT ( * ) SI_UNIT ( .MILLI., .METRE. ) );
#105 = DIRECTION ( 'NONE',  ( 0.0000000000000000000, 1.000000000000000000, 0.0000000000000000000 ) ) ;
#106 = CARTESIAN_POINT ( 'NONE',  ( 4.538925740496073362E-14, -1.592040838891559095E-15, 13.00000000000000000 ) ) ;
#107 = CARTESIAN_POINT ( 'NONE',  ( -1.995362842726608354E-31, 6.998790717559360303E-33, -5.714946319569193325E-17 ) ) ;
#108 = FACE_OUTER_BOUND ( 'NONE', #145, .T. ) ;
#109 = CALENDAR_DATE ( 2021, 1, 12 ) ;
#110 = MANIFOLD_SOLID_BREP ( 'Corps-Déplacer/Copier1[1]', #273 ) ;
#111 = CONICAL_SURFACE ( 'NONE', #66, 1.499999999999997780, 0.1745329251994260922 ) ;
#112 = DIRECTION ( 'NONE',  ( 4.275831445896958607E-31, 1.000000000000000000, 1.224646799147353207E-16 ) ) ;
#113 = MANIFOLD_SOLID_BREP ( 'Corps-Déplacer/Copier1[2]', #213 ) ;
#114 = FACE_OUTER_BOUND ( 'NONE', #127, .T. ) ;
#115 = FACE_BOUND ( 'NONE', #4, .T. ) ;
#116 = AXIS2_PLACEMENT_3D ( 'NONE', #185, #64, #14 ) ;
#117 = APPROVAL_PERSON_ORGANIZATION ( #139, #198, #235 ) ;
#118 = APPROVAL ( #167, 'UNSPECIFIED' ) ;
#119 = COORDINATED_UNIVERSAL_TIME_OFFSET ( 1, 0, .AHEAD. ) ;
#120 = EDGE_CURVE ( 'NONE', #125, #125, #82, .T. ) ;
#121 = EDGE_LOOP ( 'NONE', ( #103 ) ) ;
#122 = ORIENTED_EDGE ( 'NONE', *, *, #222, .F. ) ;
#123 = PRODUCT_DEFINITION ( 'UNKNOWN', '', #151, #152 ) ;
#124 = AXIS2_PLACEMENT_3D ( 'NONE', #218, #202, #283 ) ;
#125 = VERTEX_POINT ( 'NONE', #75 ) ;
#126 = DIRECTION ( 'NONE',  ( 3.491481338843133355E-15, -1.224646799147353207E-16, 1.000000000000000000 ) ) ;
#127 = EDGE_LOOP ( 'NONE', ( #77 ) ) ;
#128 = CYLINDRICAL_SURFACE ( 'NONE', #180, 1.500000000000000444 ) ;
#129 = CC_DESIGN_PERSON_AND_ORGANIZATION_ASSIGNMENT ( #160, #251, ( #123 ) ) ;
#130 = VERTEX_POINT ( 'NONE', #29 ) ;
#131 = DIRECTION ( 'NONE',  ( 3.491481338843133355E-15, -1.224646799147353207E-16, 1.000000000000000000 ) ) ;
#132 = PLANE ( 'NONE',  #179 ) ;
#133 = PRODUCT_RELATED_PRODUCT_CATEGORY ( 'detail', '', ( #220 ) ) ;
#134 = CALENDAR_DATE ( 2021, 1, 12 ) ;
#135 = PERSON_AND_ORGANIZATION ( #290, #262 ) ;
#136 = DIRECTION ( 'NONE',  ( 0.0000000000000000000, 1.000000000000000000, 0.0000000000000000000 ) ) ;
#137 = PRODUCT_DEFINITION_SHAPE ( 'NONE', 'NONE',  #123 ) ;
#138 = DIRECTION ( 'NONE',  ( -3.491481338843133355E-15, 1.224646799147353207E-16, -1.000000000000000000 ) ) ;
#139 = PERSON_AND_ORGANIZATION ( #290, #262 ) ;
#140 = APPROVAL_DATE_TIME ( #280, #118 ) ;
#141 = AXIS2_PLACEMENT_3D ( 'NONE', #20, #193, #234 ) ;
#142 = CARTESIAN_POINT ( 'NONE',  ( 1.326762908760390423E-13, -4.653657836759941941E-15, 38.00000000000000000 ) ) ;
#143 = ADVANCED_FACE ( 'NONE', ( #62, #81 ), #303, .F. ) ;
#144 = DIRECTION ( 'NONE',  ( -3.491481338843133355E-15, 1.224646799147353207E-16, -1.000000000000000000 ) ) ;
#145 = EDGE_LOOP ( 'NONE', ( #153 ) ) ;
#146 = VERTEX_POINT ( 'NONE', #245 ) ;
#147 = CYLINDRICAL_SURFACE ( 'NONE', #232, 0.5299999999999995826 ) ;
#148 = CARTESIAN_POINT ( 'NONE',  ( 2.094888803305880013E-14, -7.347880794884119736E-16, 6.000000000000000000 ) ) ;
#149 = EDGE_LOOP ( 'NONE', ( #6 ) ) ;
#150 = ORIENTED_EDGE ( 'NONE', *, *, #69, .T. ) ;
#151 = PRODUCT_DEFINITION_FORMATION_WITH_SPECIFIED_SOURCE ( 'ANY', '', #220, .NOT_KNOWN. ) ;
#152 = DESIGN_CONTEXT ( 'detailed design', #227, 'design' ) ;
#153 = ORIENTED_EDGE ( 'NONE', *, *, #34, .T. ) ;
#154 = DIRECTION ( 'NONE',  ( -3.032960542342107295E-31, -1.000000000000000000, -8.537024980200832418E-17 ) ) ;
#155 = EDGE_LOOP ( 'NONE', ( #203 ) ) ;
#156 = CARTESIAN_POINT ( 'NONE',  ( 1.316288464743861212E-13, -4.616918432785521081E-15, 37.69999999999999574 ) ) ;
#157 = LOCAL_TIME ( 11, 40, 33.00000000000000000, #215 ) ;
#158 = APPLICATION_CONTEXT ( 'configuration controlled 3d designs of mechanical parts and assemblies' ) ;
#159 = DIRECTION ( 'NONE',  ( -4.275831445896958607E-31, -1.000000000000000000, -1.224646799147353207E-16 ) ) ;
#160 = PERSON_AND_ORGANIZATION ( #290, #262 ) ;
#161 = FACE_OUTER_BOUND ( 'NONE', #223, .T. ) ;
#162 = CALENDAR_DATE ( 2021, 1, 12 ) ;
#163 = FACE_BOUND ( 'NONE', #181, .T. ) ;
#164 = PERSON_AND_ORGANIZATION ( #290, #262 ) ;
#165 = CIRCLE ( 'NONE', #195, 1.200000000000003286 ) ;
#166 = DIRECTION ( 'NONE',  ( 0.0000000000000000000, 1.000000000000000000, 0.0000000000000000000 ) ) ;
#167 = APPROVAL_STATUS ( 'not_yet_approved' ) ;
#168 = AXIS2_PLACEMENT_3D ( 'NONE', #148, #284, #105 ) ;
#169 = CARTESIAN_POINT ( 'NONE',  ( 8.728703347107831416E-16, -3.061616997868382402E-17, 0.2499999999999999445 ) ) ;
#170 = SHAPE_DEFINITION_REPRESENTATION ( #137, #197 ) ;
#171 = PERSON_AND_ORGANIZATION_ROLE ( 'classification_officer' ) ;
#172 = FACE_OUTER_BOUND ( 'NONE', #155, .T. ) ;
#173 = ADVANCED_FACE ( 'NONE', ( #211, #163 ), #205, .T. ) ;
#174 = ORIENTED_EDGE ( 'NONE', *, *, #270, .T. ) ;
#175 = EDGE_LOOP ( 'NONE', ( #204 ) ) ;
#176 = CARTESIAN_POINT ( 'NONE',  ( 2.094888803305880013E-14, 0.6349999999999992317, 6.000000000000000000 ) ) ;
#177 = EDGE_LOOP ( 'NONE', ( #93 ) ) ;
#178 = ADVANCED_FACE ( 'NONE', ( #38, #115 ), #65, .T. ) ;
#179 = AXIS2_PLACEMENT_3D ( 'NONE', #207, #184, #236 ) ;
#180 = AXIS2_PLACEMENT_3D ( 'NONE', #292, #226, #95 ) ;
#181 = EDGE_LOOP ( 'NONE', ( #97 ) ) ;
#182 = PLANE ( 'NONE',  #266 ) ;
#183 = APPLICATION_PROTOCOL_DEFINITION ( 'international standard', 'config_control_design', 1994, #158 ) ;
#184 = DIRECTION ( 'NONE',  ( -3.491481338843133355E-15, 1.224646799147353207E-16, -1.000000000000000000 ) ) ;
#185 = CARTESIAN_POINT ( 'NONE',  ( 2.094888803305880013E-14, 4.761737309951387505E-33, 6.000000000000000000 ) ) ;
#186 = CARTESIAN_POINT ( 'NONE',  ( 2.094888803305880013E-14, 0.6349999999999992317, 6.000000000000000000 ) ) ;
#187 = APPLICATION_PROTOCOL_DEFINITION ( 'international standard', 'config_control_design', 1994, #227 ) ;
#188 = AXIS2_PLACEMENT_3D ( 'NONE', #19, #42, #278 ) ;
#189 = PLANE ( 'NONE',  #199 ) ;
#190 = PERSON_AND_ORGANIZATION ( #290, #262 ) ;
#191 = CARTESIAN_POINT ( 'NONE',  ( 2.158386745567707920E-14, -7.570601595016355358E-16, 6.181865334794736100 ) ) ;
#192 = APPROVAL_DATE_TIME ( #231, #198 ) ;
#193 = DIRECTION ( 'NONE',  ( -3.491481338843133355E-15, 1.224646799147353207E-16, -1.000000000000000000 ) ) ;
#194 = EDGE_CURVE ( 'NONE', #48, #48, #101, .T. ) ;
#195 = AXIS2_PLACEMENT_3D ( 'NONE', #230, #254, #136 ) ;
#196 = APPROVAL ( #277, 'UNSPECIFIED' ) ;
#197 = ADVANCED_BREP_SHAPE_REPRESENTATION ( '972014', ( #110, #113, #50 ), #12 ) ;
#198 = APPROVAL ( #67, 'UNSPECIFIED' ) ;
#199 = AXIS2_PLACEMENT_3D ( 'NONE', #272, #131, #159 ) ;
#200 = ORIENTED_EDGE ( 'NONE', *, *, #275, .F. ) ;
#201 = VERTEX_POINT ( 'NONE', #186 ) ;
#202 = DIRECTION ( 'NONE',  ( -3.491481338843133355E-15, 1.224646799147353207E-16, -1.000000000000000000 ) ) ;
#203 = ORIENTED_EDGE ( 'NONE', *, *, #41, .T. ) ;
#204 = ORIENTED_EDGE ( 'NONE', *, *, #120, .F. ) ;
#205 = CONICAL_SURFACE ( 'NONE', #188, 0.5299999999999991385, 0.5235987755982933756 ) ;
#206 = CC_DESIGN_APPROVAL ( #198, ( #123 ) ) ;
#207 = CARTESIAN_POINT ( 'NONE',  ( 1.326762908760390423E-13, 8.998558695971103225E-33, 38.00000000000000000 ) ) ;
#208 = FACE_OUTER_BOUND ( 'NONE', #121, .T. ) ;
#209 = CYLINDRICAL_SURFACE ( 'NONE', #242, 0.6349999999999996758 ) ;
#210 = PERSON_AND_ORGANIZATION_ROLE ( 'design_owner' ) ;
#211 = FACE_OUTER_BOUND ( 'NONE', #73, .T. ) ;
#212 = MECHANICAL_CONTEXT ( 'NONE', #158, 'mechanical' ) ;
#213 = CLOSED_SHELL ( 'NONE', ( #260, #288, #43, #8 ) ) ;
#214 = FACE_OUTER_BOUND ( 'NONE', #175, .T. ) ;
#215 = COORDINATED_UNIVERSAL_TIME_OFFSET ( 1, 0, .AHEAD. ) ;
#216 = DIRECTION ( 'NONE',  ( 3.491481338843133355E-15, -1.224646799147353207E-16, 1.000000000000000000 ) ) ;
#217 = EDGE_LOOP ( 'NONE', ( #53 ) ) ;
#218 = CARTESIAN_POINT ( 'NONE',  ( 8.728703347107831416E-16, -3.061616997868382402E-17, 0.2499999999999999445 ) ) ;
#219 = AXIS2_PLACEMENT_3D ( 'NONE', #225, #144, #289 ) ;
#220 = PRODUCT ( '972014', '972014', '', ( #212 ) ) ;
#221 = VERTEX_POINT ( 'NONE', #49 ) ;
#222 = EDGE_CURVE ( 'NONE', #287, #287, #296, .T. ) ;
#223 = EDGE_LOOP ( 'NONE', ( #265 ) ) ;
#224 = VERTEX_POINT ( 'NONE', #51 ) ;
#225 = CARTESIAN_POINT ( 'NONE',  ( 6.520732687838371458E-14, -2.287165142604692625E-15, 18.67612069208122705 ) ) ;
#226 = DIRECTION ( 'NONE',  ( -3.491481338843133355E-15, 1.224646799147353207E-16, -1.000000000000000000 ) ) ;
#227 = APPLICATION_CONTEXT ( 'configuration controlled 3d designs of mechanical parts and assemblies' ) ;
#228 = ADVANCED_FACE ( 'NONE', ( #114 ), #132, .F. ) ;
#229 = DIRECTION ( 'NONE',  ( -3.491481338843133355E-15, 1.224646799147353207E-16, -1.000000000000000000 ) ) ;
#230 = CARTESIAN_POINT ( 'NONE',  ( 1.326762908760390423E-13, -4.653657836759941941E-15, 38.00000000000000000 ) ) ;
#231 = DATE_AND_TIME ( #134, #297 ) ;
#232 = AXIS2_PLACEMENT_3D ( 'NONE', #25, #24, #92 ) ;
#233 = ADVANCED_FACE ( 'NONE', ( #54, #208 ), #111, .T. ) ;
#234 = DIRECTION ( 'NONE',  ( 0.0000000000000000000, 1.000000000000000000, 0.0000000000000000000 ) ) ;
#235 = APPROVAL_ROLE ( '' ) ;
#236 = DIRECTION ( 'NONE',  ( 4.275831445896958607E-31, 1.000000000000000000, 1.224646799147353207E-16 ) ) ;
#237 = CC_DESIGN_DATE_AND_TIME_ASSIGNMENT ( #23, #68, ( #248 ) ) ;
#238 = CALENDAR_DATE ( 2021, 1, 12 ) ;
#239 = AXIS2_PLACEMENT_3D ( 'NONE', #261, #44, #3 ) ;
#240 = DIRECTION ( 'NONE',  ( 0.0000000000000000000, 1.000000000000000000, 0.0000000000000000000 ) ) ;
#241 = CARTESIAN_POINT ( 'NONE',  ( 6.520732687838371458E-14, -2.287165142604692625E-15, 18.67612069208122705 ) ) ;
#242 = AXIS2_PLACEMENT_3D ( 'NONE', #256, #138, #250 ) ;
#243 = ORIENTED_EDGE ( 'NONE', *, *, #252, .F. ) ;
#244 = ORIENTED_EDGE ( 'NONE', *, *, #46, .T. ) ;
#245 = CARTESIAN_POINT ( 'NONE',  ( 1.316288464743861212E-13, 1.499999999999998668, 37.69999999999999574 ) ) ;
#246 = ORIENTED_EDGE ( 'NONE', *, *, #252, .T. ) ;
#247 = CARTESIAN_POINT ( 'NONE',  ( 1.326762908760390423E-13, 1.199999999999998845, 38.00000000000000000 ) ) ;
#248 = SECURITY_CLASSIFICATION ( '', '', #63 ) ;
#249 = CIRCLE ( 'NONE', #219, 1.499999999999997780 ) ;
#250 = DIRECTION ( 'NONE',  ( 4.275831445896958607E-31, 1.000000000000000000, 1.224646799147353207E-16 ) ) ;
#251 = PERSON_AND_ORGANIZATION_ROLE ( 'creator' ) ;
#252 = EDGE_CURVE ( 'NONE', #146, #146, #27, .T. ) ;
#253 = DATE_AND_TIME ( #162, #91 ) ;
#254 = DIRECTION ( 'NONE',  ( -3.491481338843133355E-15, 1.224646799147353207E-16, -1.000000000000000000 ) ) ;
#255 = CIRCLE ( 'NONE', #56, 0.5300000000000000266 ) ;
#256 = CARTESIAN_POINT ( 'NONE',  ( 0.0000000000000000000, 0.0000000000000000000, 0.0000000000000000000 ) ) ;
#257 = ADVANCED_FACE ( 'NONE', ( #214, #172 ), #147, .T. ) ;
#258 = AXIS2_PLACEMENT_3D ( 'NONE', #142, #52, #240 ) ;
#259 = PERSON_AND_ORGANIZATION ( #290, #262 ) ;
#260 = ADVANCED_FACE ( 'NONE', ( #294 ), #182, .F. ) ;
#261 = CARTESIAN_POINT ( 'NONE',  ( -3.990725685453216708E-31, 1.399758143511872061E-32, -1.142989263913838665E-16 ) ) ;
#262 = ORGANIZATION ( 'UNSPECIFIED', 'UNSPECIFIED', '' ) ;
#263 = CARTESIAN_POINT ( 'NONE',  ( 4.538925740496073362E-14, 0.5299999999999983613, 13.00000000000000000 ) ) ;
#264 = AXIS2_PLACEMENT_3D ( 'NONE', #300, #58, #13 ) ;
#265 = ORIENTED_EDGE ( 'NONE', *, *, #194, .F. ) ;
#266 = AXIS2_PLACEMENT_3D ( 'NONE', #107, #216, #1 ) ;
#267 =( NAMED_UNIT ( * ) SI_UNIT ( $, .STERADIAN. ) SOLID_ANGLE_UNIT ( ) );
#268 = ORIENTED_EDGE ( 'NONE', *, *, #41, .F. ) ;
#269 = FACE_OUTER_BOUND ( 'NONE', #26, .T. ) ;
#270 = EDGE_CURVE ( 'NONE', #221, #221, #45, .T. ) ;
#271 = VERTEX_POINT ( 'NONE', #247 ) ;
#272 = CARTESIAN_POINT ( 'NONE',  ( 2.094888803305880013E-14, 4.761737309951387505E-33, 6.000000000000000000 ) ) ;
#273 = CLOSED_SHELL ( 'NONE', ( #21, #173, #257, #143, #233, #295, #178, #228 ) ) ;
#274 = DIRECTION ( 'NONE',  ( -3.491481338843133355E-15, 1.224646799147353207E-16, -1.000000000000000000 ) ) ;
#275 = EDGE_CURVE ( 'NONE', #130, #130, #249, .T. ) ;
#276 = UNCERTAINTY_MEASURE_WITH_UNIT (LENGTH_MEASURE( 1.000000000000000082E-05 ), #104, 'distance_accuracy_value', 'NONE');
#277 = APPROVAL_STATUS ( 'not_yet_approved' ) ;
#278 = DIRECTION ( 'NONE',  ( 0.0000000000000000000, 1.000000000000000000, 0.0000000000000000000 ) ) ;
#279 = PERSON_AND_ORGANIZATION_ROLE ( 'design_supplier' ) ;
#280 = DATE_AND_TIME ( #238, #157 ) ;
#281 = CC_DESIGN_APPROVAL ( #118, ( #248 ) ) ;
#282 = PERSON_AND_ORGANIZATION ( #290, #262 ) ;
#283 = DIRECTION ( 'NONE',  ( 3.032960542342107295E-31, 1.000000000000000000, 8.537024980200832418E-17 ) ) ;
#284 = DIRECTION ( 'NONE',  ( -3.491481338843133355E-15, 1.224646799147353207E-16, -1.000000000000000000 ) ) ;
#285 = EDGE_LOOP ( 'NONE', ( #268 ) ) ;
#286 = CC_DESIGN_DATE_AND_TIME_ASSIGNMENT ( #298, #84, ( #123 ) ) ;
#287 = VERTEX_POINT ( 'NONE', #176 ) ;
#288 = ADVANCED_FACE ( 'NONE', ( #78, #269 ), #33, .T. ) ;
#289 = DIRECTION ( 'NONE',  ( 0.0000000000000000000, 1.000000000000000000, 0.0000000000000000000 ) ) ;
#290 = PERSON ( 'UNSPECIFIED', 'UNSPECIFIED', 'UNSPECIFIED', ('UNSPECIFIED'), ('UNSPECIFIED'), ('UNSPECIFIED') ) ;
#291 = DIRECTION ( 'NONE',  ( 0.0000000000000000000, 1.000000000000000000, 0.0000000000000000000 ) ) ;
#292 = CARTESIAN_POINT ( 'NONE',  ( 0.0000000000000000000, 0.0000000000000000000, 0.0000000000000000000 ) ) ;
#293 = DIRECTION ( 'NONE',  ( -3.491481338843133355E-15, 1.224646799147353207E-16, -1.000000000000000000 ) ) ;
#294 = FACE_OUTER_BOUND ( 'NONE', #11, .T. ) ;
#295 = ADVANCED_FACE ( 'NONE', ( #79, #80 ), #128, .T. ) ;
#296 = CIRCLE ( 'NONE', #168, 0.6350000000000000089 ) ;
#297 = LOCAL_TIME ( 11, 40, 33.00000000000000000, #59 ) ;
#298 = DATE_AND_TIME ( #109, #83 ) ;
#299 = APPROVAL_ROLE ( '' ) ;
#300 = CARTESIAN_POINT ( 'NONE',  ( 2.094888803305880013E-14, -7.347880794884119736E-16, 6.000000000000000000 ) ) ;
#301 = DIRECTION ( 'NONE',  ( 0.0000000000000000000, 0.0000000000000000000, 1.000000000000000000 ) ) ;
#302 = APPROVAL_PERSON_ORGANIZATION ( #259, #118, #2 ) ;
#303 = TOROIDAL_SURFACE ( 'NONE', #5, 2.530000000000000249, 2.000000000000000000 ) ;
ENDSEC;
END-ISO-10303-21;
