ISO-10303-21;
HEADER;
FILE_DESCRIPTION (( 'STEP AP203' ),
    '1' );
FILE_NAME ('972007.step',
    '2021-12-01T14:04:29',
    ( '' ),
    ( '' ),
    'SwSTEP 2.0',
    'SolidWorks 2019',
    '' );
FILE_SCHEMA (( 'CONFIG_CONTROL_DESIGN' ));
ENDSEC;

DATA;
#1 = APPROVAL_STATUS ( 'not_yet_approved' ) ;
#2 = EDGE_LOOP ( 'NONE', ( #66 ) ) ;
#3 = DIRECTION ( 'NONE',  ( 3.491481338843133355E-15, -1.224646799147353207E-16, 1.000000000000000000 ) ) ;
#4 = CLOSED_SHELL ( 'NONE', ( #207, #145, #274, #111 ) ) ;
#5 = LOCAL_TIME ( 15, 4, 29.00000000000000000, #144 ) ;
#6 = APPROVAL_DATE_TIME ( #288, #262 ) ;
#7 = CARTESIAN_POINT ( 'NONE',  ( 1.745740669421566678E-13, 8.998558695971067645E-33, 50.00000000000000000 ) ) ;
#8 = DIRECTION ( 'NONE',  ( 4.275831445896958607E-31, 1.000000000000000000, 1.224646799147353207E-16 ) ) ;
#9 = ORIENTED_EDGE ( 'NONE', *, *, #97, .F. ) ;
#10 = AXIS2_PLACEMENT_3D ( 'NONE', #275, #110, #172 ) ;
#11 = DIRECTION ( 'NONE',  ( -3.491481338843133355E-15, 1.224646799147353207E-16, -1.000000000000000000 ) ) ;
#12 = DIRECTION ( 'NONE',  ( -3.491481338843133355E-15, 1.224646799147353207E-16, -1.000000000000000000 ) ) ;
#13 = CYLINDRICAL_SURFACE ( 'NONE', #34, 1.054999999999999494 ) ;
#14 = CARTESIAN_POINT ( 'NONE',  ( 3.582192684931459116E-14, 1.054999999999997717, 10.25980762113533729 ) ) ;
#15 = AXIS2_PLACEMENT_3D ( 'NONE', #243, #12, #244 ) ;
#16 = CC_DESIGN_DATE_AND_TIME_ASSIGNMENT ( #120, #263, ( #140 ) ) ;
#17 = FACE_OUTER_BOUND ( 'NONE', #162, .T. ) ;
#18 = PERSON_AND_ORGANIZATION ( #248, #220 ) ;
#19 = CONICAL_SURFACE ( 'NONE', #126, 1.200000000000001732, 0.7853981633974453924 ) ;
#20 = DIRECTION ( 'NONE',  ( 1.000000000000000000, 0.0000000000000000000, 0.0000000000000000000 ) ) ;
#21 = PERSON_AND_ORGANIZATION ( #248, #220 ) ;
#22 = CARTESIAN_POINT ( 'NONE',  ( 0.0000000000000000000, 0.0000000000000000000, 0.0000000000000000000 ) ) ;
#23 = ADVANCED_FACE ( 'NONE', ( #166, #293 ), #19, .T. ) ;
#24 = AXIS2_PLACEMENT_3D ( 'NONE', #22, #112, #20 ) ;
#25 = ORIENTED_EDGE ( 'NONE', *, *, #238, .F. ) ;
#26 = EDGE_LOOP ( 'NONE', ( #264 ) ) ;
#27 = SHAPE_DEFINITION_REPRESENTATION ( #62, #67 ) ;
#28 = DIRECTION ( 'NONE',  ( 0.0000000000000000000, 1.000000000000000000, 0.0000000000000000000 ) ) ;
#29 = AXIS2_PLACEMENT_3D ( 'NONE', #78, #173, #56 ) ;
#30 = DIRECTION ( 'NONE',  ( -3.491481338843133355E-15, 1.224646799147353207E-16, -1.000000000000000000 ) ) ;
#31 = DIRECTION ( 'NONE',  ( -3.491481338843133355E-15, 1.224646799147353207E-16, -1.000000000000000000 ) ) ;
#32 = VERTEX_POINT ( 'NONE', #204 ) ;
#33 = ADVANCED_FACE ( 'NONE', ( #52, #170 ), #189, .T. ) ;
#34 = AXIS2_PLACEMENT_3D ( 'NONE', #38, #203, #136 ) ;
#35 = FACE_OUTER_BOUND ( 'NONE', #26, .T. ) ;
#36 = DIRECTION ( 'NONE',  ( 0.0000000000000000000, 1.000000000000000000, 0.0000000000000000000 ) ) ;
#37 = VERTEX_POINT ( 'NONE', #134 ) ;
#38 = CARTESIAN_POINT ( 'NONE',  ( 0.0000000000000000000, 0.0000000000000000000, 0.0000000000000000000 ) ) ;
#39 = CALENDAR_DATE ( 2021, 1, 12 ) ;
#40 = EDGE_LOOP ( 'NONE', ( #260 ) ) ;
#41 = APPLICATION_CONTEXT ( 'configuration controlled 3d designs of mechanical parts and assemblies' ) ;
#42 = COORDINATED_UNIVERSAL_TIME_OFFSET ( 1, 0, .AHEAD. ) ;
#43 = ORIENTED_EDGE ( 'NONE', *, *, #153, .F. ) ;
#44 = CARTESIAN_POINT ( 'NONE',  ( 3.491481338843133355E-14, 1.204999999999998961, 10.00000000000000000 ) ) ;
#45 = ADVANCED_FACE ( 'NONE', ( #259, #261 ), #196, .T. ) ;
#46 = VERTEX_POINT ( 'NONE', #91 ) ;
#47 = APPROVAL_STATUS ( 'not_yet_approved' ) ;
#48 = EDGE_LOOP ( 'NONE', ( #55 ) ) ;
#49 = APPROVAL_ROLE ( '' ) ;
#50 = DIRECTION ( 'NONE',  ( -3.491481338843133355E-15, 1.224646799147353207E-16, -1.000000000000000000 ) ) ;
#51 = EDGE_CURVE ( 'NONE', #32, #32, #219, .T. ) ;
#52 = FACE_BOUND ( 'NONE', #129, .T. ) ;
#53 = EDGE_LOOP ( 'NONE', ( #284 ) ) ;
#54 = APPROVAL ( #301, 'UNSPECIFIED' ) ;
#55 = ORIENTED_EDGE ( 'NONE', *, *, #97, .T. ) ;
#56 = DIRECTION ( 'NONE',  ( -4.794846334574035592E-31, -1.000000000000000000, -1.349629260355400955E-16 ) ) ;
#57 = AXIS2_PLACEMENT_3D ( 'NONE', #289, #148, #216 ) ;
#58 = CARTESIAN_POINT ( 'NONE',  ( 0.0000000000000000000, 0.0000000000000000000, 0.0000000000000000000 ) ) ;
#59 = FACE_BOUND ( 'NONE', #303, .T. ) ;
#60 = CC_DESIGN_PERSON_AND_ORGANIZATION_ASSIGNMENT ( #233, #73, ( #184 ) ) ;
#61 = VERTEX_POINT ( 'NONE', #212 ) ;
#62 = PRODUCT_DEFINITION_SHAPE ( 'NONE', 'NONE',  #177 ) ;
#63 = FACE_OUTER_BOUND ( 'NONE', #113, .T. ) ;
#64 = ORIENTED_EDGE ( 'NONE', *, *, #213, .F. ) ;
#65 = PERSON_AND_ORGANIZATION ( #248, #220 ) ;
#66 = ORIENTED_EDGE ( 'NONE', *, *, #51, .F. ) ;
#67 = ADVANCED_BREP_SHAPE_REPRESENTATION ( '972007', ( #292, #186, #24 ), #271 ) ;
#68 = PERSON_AND_ORGANIZATION ( #248, #220 ) ;
#69 = AXIS2_PLACEMENT_3D ( 'NONE', #272, #130, #202 ) ;
#70 = ORIENTED_EDGE ( 'NONE', *, *, #167, .T. ) ;
#71 = APPROVAL_PERSON_ORGANIZATION ( #103, #262, #49 ) ;
#72 = APPROVAL ( #1, 'UNSPECIFIED' ) ;
#73 = PERSON_AND_ORGANIZATION_ROLE ( 'design_owner' ) ;
#74 = CALENDAR_DATE ( 2021, 1, 12 ) ;
#75 = ORIENTED_EDGE ( 'NONE', *, *, #213, .T. ) ;
#76 = CARTESIAN_POINT ( 'NONE',  ( 7.104220552055901835E-14, -2.491825135286219831E-15, 20.34729635533384595 ) ) ;
#77 = CC_DESIGN_PERSON_AND_ORGANIZATION_ASSIGNMENT ( #65, #160, ( #140 ) ) ;
#78 = CARTESIAN_POINT ( 'NONE',  ( 8.728703347107829444E-16, -3.061616997868381785E-17, 0.2499999999999998890 ) ) ;
#79 = ORIENTED_EDGE ( 'NONE', *, *, #281, .T. ) ;
#80 = EDGE_CURVE ( 'NONE', #229, #229, #99, .T. ) ;
#81 = CC_DESIGN_APPROVAL ( #54, ( #177 ) ) ;
#82 = DIRECTION ( 'NONE',  ( 0.0000000000000000000, -1.000000000000000000, 0.0000000000000000000 ) ) ;
#83 = DIRECTION ( 'NONE',  ( -3.491481338843133355E-15, 1.224646799147353207E-16, -1.000000000000000000 ) ) ;
#84 = CARTESIAN_POINT ( 'NONE',  ( 3.582192684931459116E-14, -1.256464056309101033E-15, 10.25980762113533729 ) ) ;
#85 = LOCAL_TIME ( 15, 4, 29.00000000000000000, #163 ) ;
#86 = PLANE ( 'NONE',  #10 ) ;
#87 = EDGE_CURVE ( 'NONE', #37, #37, #298, .T. ) ;
#88 = PLANE ( 'NONE',  #115 ) ;
#89 = CARTESIAN_POINT ( 'NONE',  ( -2.267606891615660874E-31, 7.953694297738204549E-33, -6.494684265925388547E-17 ) ) ;
#90 = APPROVAL_ROLE ( '' ) ;
#91 = CARTESIAN_POINT ( 'NONE',  ( 8.728703347107835360E-16, 1.204999999999998961, 0.2500000000000000555 ) ) ;
#92 = UNCERTAINTY_MEASURE_WITH_UNIT (LENGTH_MEASURE( 1.000000000000000082E-05 ), #211, 'distance_accuracy_value', 'NONE');
#93 = CIRCLE ( 'NONE', #69, 1.499999999999996669 ) ;
#94 = EDGE_LOOP ( 'NONE', ( #237 ) ) ;
#95 = APPROVAL_ROLE ( '' ) ;
#96 = DIRECTION ( 'NONE',  ( -3.491481338843133355E-15, 1.224646799147353207E-16, -1.000000000000000000 ) ) ;
#97 = EDGE_CURVE ( 'NONE', #300, #300, #214, .T. ) ;
#98 = EDGE_LOOP ( 'NONE', ( #25 ) ) ;
#99 = CIRCLE ( 'NONE', #269, 1.085384493975580344 ) ;
#100 = AXIS2_PLACEMENT_3D ( 'NONE', #198, #197, #125 ) ;
#101 = AXIS2_PLACEMENT_3D ( 'NONE', #58, #132, #273 ) ;
#102 = FACE_OUTER_BOUND ( 'NONE', #123, .T. ) ;
#103 = PERSON_AND_ORGANIZATION ( #248, #220 ) ;
#104 = EDGE_LOOP ( 'NONE', ( #168 ) ) ;
#105 = DIRECTION ( 'NONE',  ( -3.491481338843133355E-15, 1.224646799147353207E-16, -1.000000000000000000 ) ) ;
#106 = DIRECTION ( 'NONE',  ( 0.0000000000000000000, 1.000000000000000000, 0.0000000000000000000 ) ) ;
#107 = CARTESIAN_POINT ( 'NONE',  ( 3.582192684931459116E-14, -1.256464056309101033E-15, 10.25980762113533729 ) ) ;
#108 = AXIS2_PLACEMENT_3D ( 'NONE', #267, #83, #179 ) ;
#109 = CARTESIAN_POINT ( 'NONE',  ( 6.982962677686266711E-14, -2.602085213965210642E-15, 20.00000000000000000 ) ) ;
#110 = DIRECTION ( 'NONE',  ( 3.491481338843133355E-15, -1.224646799147353207E-16, 1.000000000000000000 ) ) ;
#111 = ADVANCED_FACE ( 'NONE', ( #239 ), #290, .T. ) ;
#112 = DIRECTION ( 'NONE',  ( 0.0000000000000000000, 0.0000000000000000000, 1.000000000000000000 ) ) ;
#113 = EDGE_LOOP ( 'NONE', ( #43 ) ) ;
#114 = PERSON_AND_ORGANIZATION_ROLE ( 'design_supplier' ) ;
#115 = AXIS2_PLACEMENT_3D ( 'NONE', #89, #296, #299 ) ;
#116 = CARTESIAN_POINT ( 'NONE',  ( 3.491481338843133355E-14, 1.204999999999998961, 10.00000000000000000 ) ) ;
#117 = DATE_AND_TIME ( #257, #256 ) ;
#118 = ORIENTED_EDGE ( 'NONE', *, *, #167, .F. ) ;
#119 = TOROIDAL_SURFACE ( 'NONE', #228, 3.055000000000000604, 2.000000000000000888 ) ;
#120 = DATE_AND_TIME ( #194, #201 ) ;
#121 = ORIENTED_EDGE ( 'NONE', *, *, #51, .T. ) ;
#122 = CC_DESIGN_PERSON_AND_ORGANIZATION_ASSIGNMENT ( #283, #161, ( #169 ) ) ;
#123 = EDGE_LOOP ( 'NONE', ( #75 ) ) ;
#124 = APPLICATION_CONTEXT ( 'configuration controlled 3d designs of mechanical parts and assemblies' ) ;
#125 = DIRECTION ( 'NONE',  ( -4.275831445896958607E-31, -1.000000000000000000, -1.224646799147353207E-16 ) ) ;
#126 = AXIS2_PLACEMENT_3D ( 'NONE', #217, #50, #146 ) ;
#127 = CC_DESIGN_PERSON_AND_ORGANIZATION_ASSIGNMENT ( #215, #187, ( #177 ) ) ;
#128 = FACE_OUTER_BOUND ( 'NONE', #2, .T. ) ;
#129 = EDGE_LOOP ( 'NONE', ( #199 ) ) ;
#130 = DIRECTION ( 'NONE',  ( -3.491481338843133355E-15, 1.224646799147353207E-16, -1.000000000000000000 ) ) ;
#131 = AXIS2_PLACEMENT_3D ( 'NONE', #266, #152, #106 ) ;
#132 = DIRECTION ( 'NONE',  ( -3.491481338843133355E-15, 1.224646799147353207E-16, -1.000000000000000000 ) ) ;
#133 = FACE_OUTER_BOUND ( 'NONE', #242, .T. ) ;
#134 = CARTESIAN_POINT ( 'NONE',  ( 0.0000000000000000000, 1.060662432702594860, 0.0000000000000000000 ) ) ;
#135 = CC_DESIGN_APPROVAL ( #262, ( #140 ) ) ;
#136 = DIRECTION ( 'NONE',  ( 4.275831445896958607E-31, 1.000000000000000000, 1.224646799147352961E-16 ) ) ;
#137 =( NAMED_UNIT ( * ) PLANE_ANGLE_UNIT ( ) SI_UNIT ( $, .RADIAN. ) );
#138 = COORDINATED_UNIVERSAL_TIME_OFFSET ( 1, 0, .AHEAD. ) ;
#139 =( NAMED_UNIT ( * ) SI_UNIT ( $, .STERADIAN. ) SOLID_ANGLE_UNIT ( ) );
#140 = SECURITY_CLASSIFICATION ( '', '', #280 ) ;
#141 = ORIENTED_EDGE ( 'NONE', *, *, #153, .T. ) ;
#142 = ADVANCED_FACE ( 'NONE', ( #128 ), #221, .F. ) ;
#143 = VERTEX_POINT ( 'NONE', #253 ) ;
#144 = COORDINATED_UNIVERSAL_TIME_OFFSET ( 1, 0, .AHEAD. ) ;
#145 = ADVANCED_FACE ( 'NONE', ( #222, #102 ), #195, .T. ) ;
#146 = DIRECTION ( 'NONE',  ( 0.0000000000000000000, 1.000000000000000000, 0.0000000000000000000 ) ) ;
#147 = DIRECTION ( 'NONE',  ( 0.0000000000000000000, 1.000000000000000000, 0.0000000000000000000 ) ) ;
#148 = DIRECTION ( 'NONE',  ( -3.491481338843133355E-15, 1.224646799147353207E-16, -1.000000000000000000 ) ) ;
#149 = AXIS2_PLACEMENT_3D ( 'NONE', #241, #31, #28 ) ;
#150 = DIRECTION ( 'NONE',  ( -3.491481338843133355E-15, 1.224646799147353207E-16, -1.000000000000000000 ) ) ;
#151 = EDGE_LOOP ( 'NONE', ( #118 ) ) ;
#152 = DIRECTION ( 'NONE',  ( -3.491481338843133355E-15, 1.224646799147353207E-16, -1.000000000000000000 ) ) ;
#153 = EDGE_CURVE ( 'NONE', #227, #227, #200, .T. ) ;
#154 = DIRECTION ( 'NONE',  ( -3.491481338843133355E-15, 1.224646799147353207E-16, -1.000000000000000000 ) ) ;
#155 = ADVANCED_FACE ( 'NONE', ( #133, #17 ), #119, .F. ) ;
#156 = CYLINDRICAL_SURFACE ( 'NONE', #101, 1.204999999999999627 ) ;
#157 = AXIS2_PLACEMENT_3D ( 'NONE', #265, #30, #8 ) ;
#158 = VERTEX_POINT ( 'NONE', #44 ) ;
#159 = APPLICATION_PROTOCOL_DEFINITION ( 'international standard', 'config_control_design', 1994, #124 ) ;
#160 = PERSON_AND_ORGANIZATION_ROLE ( 'classification_officer' ) ;
#161 = PERSON_AND_ORGANIZATION_ROLE ( 'creator' ) ;
#162 = EDGE_LOOP ( 'NONE', ( #223 ) ) ;
#163 = COORDINATED_UNIVERSAL_TIME_OFFSET ( 1, 0, .AHEAD. ) ;
#164 = CARTESIAN_POINT ( 'NONE',  ( 7.925207956401453312E-14, -2.779788752816311117E-15, 22.69869773678180636 ) ) ;
#165 = DIRECTION ( 'NONE',  ( 0.0000000000000000000, 1.000000000000000000, 0.0000000000000000000 ) ) ;
#166 = FACE_OUTER_BOUND ( 'NONE', #53, .T. ) ;
#167 = EDGE_CURVE ( 'NONE', #61, #61, #93, .T. ) ;
#168 = ORIENTED_EDGE ( 'NONE', *, *, #270, .T. ) ;
#169 = PRODUCT_DEFINITION_FORMATION_WITH_SPECIFIED_SOURCE ( 'ANY', '', #184, .NOT_KNOWN. ) ;
#170 = FACE_OUTER_BOUND ( 'NONE', #234, .T. ) ;
#171 = CC_DESIGN_PERSON_AND_ORGANIZATION_ASSIGNMENT ( #18, #114, ( #169 ) ) ;
#172 = DIRECTION ( 'NONE',  ( -4.275831445896958607E-31, -1.000000000000000000, -1.224646799147353207E-16 ) ) ;
#173 = DIRECTION ( 'NONE',  ( 3.491481338843133355E-15, -1.224646799147353207E-16, 1.000000000000000000 ) ) ;
#174 = CLOSED_SHELL ( 'NONE', ( #218, #210, #295, #155, #33, #45, #23, #142 ) ) ;
#175 = LOCAL_TIME ( 15, 4, 29.00000000000000000, #138 ) ;
#176 = DIRECTION ( 'NONE',  ( 4.275831445896958607E-31, 1.000000000000000000, 1.224646799147353207E-16 ) ) ;
#177 = PRODUCT_DEFINITION ( 'UNKNOWN', '', #169, #302 ) ;
#178 = CARTESIAN_POINT ( 'NONE',  ( 6.982962677686265448E-14, 1.054999999999997717, 19.99999999999999645 ) ) ;
#179 = DIRECTION ( 'NONE',  ( 4.794846334574035592E-31, 1.000000000000000000, 1.349629260355400955E-16 ) ) ;
#180 = CIRCLE ( 'NONE', #131, 1.205000000000000293 ) ;
#181 = CIRCLE ( 'NONE', #232, 1.205000000000000293 ) ;
#182 = APPROVAL_DATE_TIME ( #258, #54 ) ;
#183 = CALENDAR_DATE ( 2021, 1, 12 ) ;
#184 = PRODUCT ( '972007', '972007', '', ( #282 ) ) ;
#185 = CC_DESIGN_DATE_AND_TIME_ASSIGNMENT ( #117, #254, ( #177 ) ) ;
#186 = MANIFOLD_SOLID_BREP ( 'Corps-Déplacer/Copier1[2]', #4 ) ;
#187 = PERSON_AND_ORGANIZATION_ROLE ( 'creator' ) ;
#188 = EDGE_LOOP ( 'NONE', ( #209 ) ) ;
#189 = CONICAL_SURFACE ( 'NONE', #251, 1.499999999999996669, 0.1745329251994264530 ) ;
#190 = APPLICATION_PROTOCOL_DEFINITION ( 'international standard', 'config_control_design', 1994, #41 ) ;
#191 = DATE_AND_TIME ( #183, #175 ) ;
#192 = EDGE_LOOP ( 'NONE', ( #79 ) ) ;
#193 = CARTESIAN_POINT ( 'NONE',  ( 6.982962677686265448E-14, -2.449293598294706119E-15, 19.99999999999999645 ) ) ;
#194 = CALENDAR_DATE ( 2021, 1, 12 ) ;
#195 = CONICAL_SURFACE ( 'NONE', #29, 1.204999999999998961, 0.5235987755982920433 ) ;
#196 = CYLINDRICAL_SURFACE ( 'NONE', #57, 1.499999999999999112 ) ;
#197 = DIRECTION ( 'NONE',  ( 3.491481338843133355E-15, -1.224646799147353207E-16, 1.000000000000000000 ) ) ;
#198 = CARTESIAN_POINT ( 'NONE',  ( 3.491481338843133355E-14, 9.036052690537675939E-33, 10.00000000000000000 ) ) ;
#199 = ORIENTED_EDGE ( 'NONE', *, *, #80, .F. ) ;
#200 = CIRCLE ( 'NONE', #231, 1.054999999999999050 ) ;
#201 = LOCAL_TIME ( 15, 4, 29.00000000000000000, #42 ) ;
#202 = DIRECTION ( 'NONE',  ( 0.0000000000000000000, 1.000000000000000000, 0.0000000000000000000 ) ) ;
#203 = DIRECTION ( 'NONE',  ( -3.491481338843133355E-15, 1.224646799147353207E-16, -1.000000000000000000 ) ) ;
#204 = CARTESIAN_POINT ( 'NONE',  ( 1.745740669421566678E-13, 1.199999999999995515, 50.00000000000000000 ) ) ;
#205 = CC_DESIGN_APPROVAL ( #72, ( #169 ) ) ;
#206 = CARTESIAN_POINT ( 'NONE',  ( 3.491481338843133355E-14, -1.224646799147353256E-15, 10.00000000000000000 ) ) ;
#207 = ADVANCED_FACE ( 'NONE', ( #224 ), #88, .F. ) ;
#208 = FACE_OUTER_BOUND ( 'NONE', #279, .T. ) ;
#209 = ORIENTED_EDGE ( 'NONE', *, *, #281, .F. ) ;
#210 = ADVANCED_FACE ( 'NONE', ( #294, #59 ), #240, .T. ) ;
#211 =( LENGTH_UNIT ( ) NAMED_UNIT ( * ) SI_UNIT ( .MILLI., .METRE. ) );
#212 = CARTESIAN_POINT ( 'NONE',  ( 7.925207956401453312E-14, 1.499999999999994005, 22.69869773678180636 ) ) ;
#213 = EDGE_CURVE ( 'NONE', #46, #46, #236, .T. ) ;
#214 = CIRCLE ( 'NONE', #245, 1.055000000000000160 ) ;
#215 = PERSON_AND_ORGANIZATION ( #248, #220 ) ;
#216 = DIRECTION ( 'NONE',  ( 4.275831445896958607E-31, 1.000000000000000000, 1.224646799147353454E-16 ) ) ;
#217 = CARTESIAN_POINT ( 'NONE',  ( 1.745740669421566678E-13, -6.123233995736766085E-15, 50.00000000000000000 ) ) ;
#218 = ADVANCED_FACE ( 'NONE', ( #297 ), #86, .F. ) ;
#219 = CIRCLE ( 'NONE', #149, 1.200000000000001732 ) ;
#220 = ORGANIZATION ( 'UNSPECIFIED', 'UNSPECIFIED', '' ) ;
#221 = PLANE ( 'NONE',  #268 ) ;
#222 = FACE_BOUND ( 'NONE', #94, .T. ) ;
#223 = ORIENTED_EDGE ( 'NONE', *, *, #80, .T. ) ;
#224 = FACE_OUTER_BOUND ( 'NONE', #40, .T. ) ;
#225 = DIRECTION ( 'NONE',  ( -3.491481338843133355E-15, 1.224646799147353207E-16, -1.000000000000000000 ) ) ;
#226 = DIRECTION ( 'NONE',  ( 0.0000000000000000000, 1.000000000000000000, 0.0000000000000000000 ) ) ;
#227 = VERTEX_POINT ( 'NONE', #14 ) ;
#228 = AXIS2_PLACEMENT_3D ( 'NONE', #109, #105, #176 ) ;
#229 = VERTEX_POINT ( 'NONE', #249 ) ;
#230 = APPROVAL_DATE_TIME ( #191, #72 ) ;
#231 = AXIS2_PLACEMENT_3D ( 'NONE', #107, #11, #36 ) ;
#232 = AXIS2_PLACEMENT_3D ( 'NONE', #206, #154, #250 ) ;
#233 = PERSON_AND_ORGANIZATION ( #248, #220 ) ;
#234 = EDGE_LOOP ( 'NONE', ( #70 ) ) ;
#235 = VERTEX_POINT ( 'NONE', #116 ) ;
#236 = CIRCLE ( 'NONE', #108, 1.204999999999998961 ) ;
#237 = ORIENTED_EDGE ( 'NONE', *, *, #87, .F. ) ;
#238 = EDGE_CURVE ( 'NONE', #158, #158, #180, .T. ) ;
#239 = FACE_OUTER_BOUND ( 'NONE', #98, .T. ) ;
#240 = CONICAL_SURFACE ( 'NONE', #276, 1.054999999999999050, 0.5235987755982940417 ) ;
#241 = CARTESIAN_POINT ( 'NONE',  ( 1.745740669421566678E-13, -6.123233995736766085E-15, 50.00000000000000000 ) ) ;
#242 = EDGE_LOOP ( 'NONE', ( #9 ) ) ;
#243 = CARTESIAN_POINT ( 'NONE',  ( 1.735266225405037467E-13, -6.086494591762345225E-15, 49.70000000000000284 ) ) ;
#244 = DIRECTION ( 'NONE',  ( 0.0000000000000000000, 1.000000000000000000, 0.0000000000000000000 ) ) ;
#245 = AXIS2_PLACEMENT_3D ( 'NONE', #193, #286, #165 ) ;
#246 = APPROVAL_PERSON_ORGANIZATION ( #68, #72, #95 ) ;
#247 = FACE_OUTER_BOUND ( 'NONE', #48, .T. ) ;
#248 = PERSON ( 'UNSPECIFIED', 'UNSPECIFIED', 'UNSPECIFIED', ('UNSPECIFIED'), ('UNSPECIFIED'), ('UNSPECIFIED') ) ;
#249 = CARTESIAN_POINT ( 'NONE',  ( 7.104220552055901835E-14, 1.085384493975577902, 20.34729635533384595 ) ) ;
#250 = DIRECTION ( 'NONE',  ( 0.0000000000000000000, 1.000000000000000000, 0.0000000000000000000 ) ) ;
#251 = AXIS2_PLACEMENT_3D ( 'NONE', #164, #3, #82 ) ;
#252 = CC_DESIGN_SECURITY_CLASSIFICATION ( #140, ( #169 ) ) ;
#253 = CARTESIAN_POINT ( 'NONE',  ( 1.735266225405037467E-13, 1.499999999999995559, 49.70000000000000284 ) ) ;
#254 = DATE_TIME_ROLE ( 'creation_date' ) ;
#255 = EDGE_LOOP ( 'NONE', ( #121 ) ) ;
#256 = LOCAL_TIME ( 15, 4, 29.00000000000000000, #278 ) ;
#257 = CALENDAR_DATE ( 2021, 1, 12 ) ;
#258 = DATE_AND_TIME ( #39, #85 ) ;
#259 = FACE_OUTER_BOUND ( 'NONE', #151, .T. ) ;
#260 = ORIENTED_EDGE ( 'NONE', *, *, #87, .T. ) ;
#261 = FACE_OUTER_BOUND ( 'NONE', #104, .T. ) ;
#262 = APPROVAL ( #47, 'UNSPECIFIED' ) ;
#263 = DATE_TIME_ROLE ( 'classification_date' ) ;
#264 = ORIENTED_EDGE ( 'NONE', *, *, #238, .T. ) ;
#265 = CARTESIAN_POINT ( 'NONE',  ( -4.535213783231321748E-31, 1.590738859547640910E-32, -1.298936853185077709E-16 ) ) ;
#266 = CARTESIAN_POINT ( 'NONE',  ( 3.491481338843133355E-14, -1.224646799147353256E-15, 10.00000000000000000 ) ) ;
#267 = CARTESIAN_POINT ( 'NONE',  ( 8.728703347107829444E-16, -3.061616997868381785E-17, 0.2499999999999998890 ) ) ;
#268 = AXIS2_PLACEMENT_3D ( 'NONE', #7, #150, #291 ) ;
#269 = AXIS2_PLACEMENT_3D ( 'NONE', #76, #96, #147 ) ;
#270 = EDGE_CURVE ( 'NONE', #143, #143, #287, .T. ) ;
#271 =( GEOMETRIC_REPRESENTATION_CONTEXT ( 3 ) GLOBAL_UNCERTAINTY_ASSIGNED_CONTEXT ( ( #92 ) ) GLOBAL_UNIT_ASSIGNED_CONTEXT ( ( #211, #137, #139 ) ) REPRESENTATION_CONTEXT ( 'NONE', 'WORKASPACE' ) );
#272 = CARTESIAN_POINT ( 'NONE',  ( 7.925207956401453312E-14, -2.779788752816311117E-15, 22.69869773678180636 ) ) ;
#273 = DIRECTION ( 'NONE',  ( 4.275831445896958607E-31, 1.000000000000000000, 1.224646799147353207E-16 ) ) ;
#274 = ADVANCED_FACE ( 'NONE', ( #208, #35 ), #156, .T. ) ;
#275 = CARTESIAN_POINT ( 'NONE',  ( 3.491481338843133355E-14, 9.036052690537675939E-33, 10.00000000000000000 ) ) ;
#276 = AXIS2_PLACEMENT_3D ( 'NONE', #84, #225, #226 ) ;
#277 = APPROVAL_PERSON_ORGANIZATION ( #21, #54, #90 ) ;
#278 = COORDINATED_UNIVERSAL_TIME_OFFSET ( 1, 0, .AHEAD. ) ;
#279 = EDGE_LOOP ( 'NONE', ( #64 ) ) ;
#280 = SECURITY_CLASSIFICATION_LEVEL ( 'unclassified' ) ;
#281 = EDGE_CURVE ( 'NONE', #235, #235, #181, .T. ) ;
#282 = MECHANICAL_CONTEXT ( 'NONE', #41, 'mechanical' ) ;
#283 = PERSON_AND_ORGANIZATION ( #248, #220 ) ;
#284 = ORIENTED_EDGE ( 'NONE', *, *, #270, .F. ) ;
#285 = PRODUCT_RELATED_PRODUCT_CATEGORY ( 'detail', '', ( #184 ) ) ;
#286 = DIRECTION ( 'NONE',  ( -3.491481338843133355E-15, 1.224646799147353207E-16, -1.000000000000000000 ) ) ;
#287 = CIRCLE ( 'NONE', #15, 1.500000000000001554 ) ;
#288 = DATE_AND_TIME ( #74, #5 ) ;
#289 = CARTESIAN_POINT ( 'NONE',  ( 0.0000000000000000000, 0.0000000000000000000, 0.0000000000000000000 ) ) ;
#290 = PLANE ( 'NONE',  #100 ) ;
#291 = DIRECTION ( 'NONE',  ( 4.275831445896958607E-31, 1.000000000000000000, 1.224646799147353207E-16 ) ) ;
#292 = MANIFOLD_SOLID_BREP ( 'Corps-Déplacer/Copier1[1]', #174 ) ;
#293 = FACE_BOUND ( 'NONE', #255, .T. ) ;
#294 = FACE_OUTER_BOUND ( 'NONE', #188, .T. ) ;
#295 = ADVANCED_FACE ( 'NONE', ( #63, #247 ), #13, .T. ) ;
#296 = DIRECTION ( 'NONE',  ( 3.491481338843133355E-15, -1.224646799147353207E-16, 1.000000000000000000 ) ) ;
#297 = FACE_OUTER_BOUND ( 'NONE', #192, .T. ) ;
#298 = CIRCLE ( 'NONE', #157, 1.060662432702594860 ) ;
#299 = DIRECTION ( 'NONE',  ( -4.275831445896958607E-31, -1.000000000000000000, -1.224646799147353207E-16 ) ) ;
#300 = VERTEX_POINT ( 'NONE', #178 ) ;
#301 = APPROVAL_STATUS ( 'not_yet_approved' ) ;
#302 = DESIGN_CONTEXT ( 'detailed design', #124, 'design' ) ;
#303 = EDGE_LOOP ( 'NONE', ( #141 ) ) ;
ENDSEC;
END-ISO-10303-21;
