ISO-10303-21;
HEADER;
FILE_DESCRIPTION (( 'STEP AP203' ),
    '1' );
FILE_NAME ('971918.step',
    '2021-12-01T14:04:28',
    ( '' ),
    ( '' ),
    'SwSTEP 2.0',
    'SolidWorks 2019',
    '' );
FILE_SCHEMA (( 'CONFIG_CONTROL_DESIGN' ));
ENDSEC;

DATA;
#1 = DIRECTION ( 'NONE',  ( 4.097723285930293875E-31, 1.000000000000000000, 1.153406566473942246E-16 ) ) ;
#2 = LOCAL_TIME ( 15, 4, 28.00000000000000000, #248 ) ;
#3 = DIRECTION ( 'NONE',  ( -3.491481338843133355E-15, 1.224646799147353207E-16, -1.000000000000000000 ) ) ;
#4 = EDGE_CURVE ( 'NONE', #171, #171, #193, .T. ) ;
#5 =( LENGTH_UNIT ( ) NAMED_UNIT ( * ) SI_UNIT ( .MILLI., .METRE. ) );
#6 = APPLICATION_PROTOCOL_DEFINITION ( 'international standard', 'config_control_design', 1994, #110 ) ;
#7 = ORIENTED_EDGE ( 'NONE', *, *, #282, .T. ) ;
#8 = CONICAL_SURFACE ( 'NONE', #186, 0.9399999999999989475, 0.5235987755982922653 ) ;
#9 = AXIS2_PLACEMENT_3D ( 'NONE', #148, #196, #43 ) ;
#10 = CARTESIAN_POINT ( 'NONE',  ( 1.745740669421566678E-13, 1.199999999999995515, 50.00000000000000000 ) ) ;
#11 = AXIS2_PLACEMENT_3D ( 'NONE', #195, #20, #263 ) ;
#12 = PERSON_AND_ORGANIZATION_ROLE ( 'design_supplier' ) ;
#13 = DIRECTION ( 'NONE',  ( -3.491481338843133355E-15, 1.224646799147353207E-16, -1.000000000000000000 ) ) ;
#14 = DATE_AND_TIME ( #184, #214 ) ;
#15 = ORIENTED_EDGE ( 'NONE', *, *, #254, .F. ) ;
#16 = CC_DESIGN_APPROVAL ( #141, ( #151 ) ) ;
#17 = DIRECTION ( 'NONE',  ( -3.491481338843133355E-15, 1.224646799147353207E-16, -1.000000000000000000 ) ) ;
#18 = DIRECTION ( 'NONE',  ( -3.491481338843133355E-15, 1.224646799147353207E-16, -1.000000000000000000 ) ) ;
#19 = FACE_OUTER_BOUND ( 'NONE', #60, .T. ) ;
#20 = DIRECTION ( 'NONE',  ( -3.491481338843133355E-15, 1.224646799147353207E-16, -1.000000000000000000 ) ) ;
#21 = CC_DESIGN_APPROVAL ( #47, ( #104 ) ) ;
#22 = CC_DESIGN_PERSON_AND_ORGANIZATION_ASSIGNMENT ( #106, #290, ( #98 ) ) ;
#23 = CARTESIAN_POINT ( 'NONE',  ( 2.853659301800060557E-14, -1.000928944092382267E-15, 8.173205080756900998 ) ) ;
#24 = DIRECTION ( 'NONE',  ( -3.491481338843133355E-15, 1.224646799147353207E-16, -1.000000000000000000 ) ) ;
#25 = DIRECTION ( 'NONE',  ( 0.0000000000000000000, 1.000000000000000000, 0.0000000000000000000 ) ) ;
#26 =( NAMED_UNIT ( * ) SI_UNIT ( $, .STERADIAN. ) SOLID_ANGLE_UNIT ( ) );
#27 = CARTESIAN_POINT ( 'NONE',  ( 1.735266225405037467E-13, 1.499999999999995559, 49.70000000000000284 ) ) ;
#28 = MANIFOLD_SOLID_BREP ( 'Corps-Déplacer/Copier1[1]', #67 ) ;
#29 = MANIFOLD_SOLID_BREP ( 'Corps-Déplacer/Copier1[2]', #35 ) ;
#30 = COORDINATED_UNIVERSAL_TIME_OFFSET ( 1, 0, .AHEAD. ) ;
#31 = AXIS2_PLACEMENT_3D ( 'NONE', #215, #213, #262 ) ;
#32 = CALENDAR_DATE ( 2021, 1, 12 ) ;
#33 = APPROVAL_ROLE ( '' ) ;
#34 = EDGE_CURVE ( 'NONE', #174, #174, #170, .T. ) ;
#35 = CLOSED_SHELL ( 'NONE', ( #199, #136, #173, #79 ) ) ;
#36 = APPROVAL_PERSON_ORGANIZATION ( #78, #141, #33 ) ;
#37 = DIRECTION ( 'NONE',  ( 0.0000000000000000000, 1.000000000000000000, 0.0000000000000000000 ) ) ;
#38 = COORDINATED_UNIVERSAL_TIME_OFFSET ( 1, 0, .AHEAD. ) ;
#39 = EDGE_LOOP ( 'NONE', ( #59 ) ) ;
#40 = CARTESIAN_POINT ( 'NONE',  ( -5.294854276451788653E-31, 1.857184877223738138E-32, -1.516506537653781182E-16 ) ) ;
#41 = EDGE_LOOP ( 'NONE', ( #227 ) ) ;
#42 = CARTESIAN_POINT ( 'NONE',  ( 1.735266225405037467E-13, -6.086494591762345225E-15, 49.70000000000000284 ) ) ;
#43 = DIRECTION ( 'NONE',  ( 0.0000000000000000000, 1.000000000000000000, 0.0000000000000000000 ) ) ;
#44 = CONICAL_SURFACE ( 'NONE', #149, 0.8399999999999938627, 0.5235987755982938197 ) ;
#45 = CARTESIAN_POINT ( 'NONE',  ( 2.793185071074506684E-14, 0.9399999999999989475, 8.000000000000000000 ) ) ;
#46 = FACE_OUTER_BOUND ( 'NONE', #209, .T. ) ;
#47 = APPROVAL ( #113, 'UNSPECIFIED' ) ;
#48 = CARTESIAN_POINT ( 'NONE',  ( 5.935518276033326704E-14, -2.168404344971008868E-15, 17.00000000000000000 ) ) ;
#49 = DIRECTION ( 'NONE',  ( 3.491481338843133355E-15, -1.224646799147353207E-16, 1.000000000000000000 ) ) ;
#50 = AXIS2_PLACEMENT_3D ( 'NONE', #114, #13, #296 ) ;
#51 = VERTEX_POINT ( 'NONE', #58 ) ;
#52 = CARTESIAN_POINT ( 'NONE',  ( 0.0000000000000000000, 0.0000000000000000000, 0.0000000000000000000 ) ) ;
#53 = CC_DESIGN_DATE_AND_TIME_ASSIGNMENT ( #14, #271, ( #104 ) ) ;
#54 = ADVANCED_BREP_SHAPE_REPRESENTATION ( '971918', ( #28, #29, #115 ), #68 ) ;
#55 = PERSON_AND_ORGANIZATION ( #241, #272 ) ;
#56 =( NAMED_UNIT ( * ) PLANE_ANGLE_UNIT ( ) SI_UNIT ( $, .RADIAN. ) );
#57 = ORIENTED_EDGE ( 'NONE', *, *, #282, .F. ) ;
#58 = CARTESIAN_POINT ( 'NONE',  ( 8.728703347107833388E-16, 0.9399999999999989475, 0.2500000000000000000 ) ) ;
#59 = ORIENTED_EDGE ( 'NONE', *, *, #34, .F. ) ;
#60 = EDGE_LOOP ( 'NONE', ( #275 ) ) ;
#61 = ORIENTED_EDGE ( 'NONE', *, *, #92, .T. ) ;
#62 = DIRECTION ( 'NONE',  ( 3.491481338843133355E-15, -1.224646799147353207E-16, 1.000000000000000000 ) ) ;
#63 = TOROIDAL_SURFACE ( 'NONE', #86, 2.839999999999994973, 2.000000000000000444 ) ;
#64 = DIRECTION ( 'NONE',  ( -3.491481338843133355E-15, 1.224646799147353207E-16, -1.000000000000000000 ) ) ;
#65 = FACE_OUTER_BOUND ( 'NONE', #39, .T. ) ;
#66 = CARTESIAN_POINT ( 'NONE',  ( 1.745740669421566678E-13, 8.998558695971067645E-33, 50.00000000000000000 ) ) ;
#67 = CLOSED_SHELL ( 'NONE', ( #203, #211, #118, #250, #218, #223, #183, #297 ) ) ;
#68 =( GEOMETRIC_REPRESENTATION_CONTEXT ( 3 ) GLOBAL_UNCERTAINTY_ASSIGNED_CONTEXT ( ( #302 ) ) GLOBAL_UNIT_ASSIGNED_CONTEXT ( ( #5, #56, #26 ) ) REPRESENTATION_CONTEXT ( 'NONE', 'WORKASPACE' ) );
#69 = DIRECTION ( 'NONE',  ( -3.491481338843133355E-15, 1.224646799147353207E-16, -1.000000000000000000 ) ) ;
#70 = APPROVAL ( #154, 'UNSPECIFIED' ) ;
#71 = FACE_OUTER_BOUND ( 'NONE', #267, .T. ) ;
#72 = FACE_BOUND ( 'NONE', #270, .T. ) ;
#73 = APPLICATION_CONTEXT ( 'configuration controlled 3d designs of mechanical parts and assemblies' ) ;
#74 = PERSON_AND_ORGANIZATION_ROLE ( 'design_owner' ) ;
#75 = ORIENTED_EDGE ( 'NONE', *, *, #242, .T. ) ;
#76 = PRODUCT_DEFINITION_SHAPE ( 'NONE', 'NONE',  #151 ) ;
#77 = AXIS2_PLACEMENT_3D ( 'NONE', #220, #240, #243 ) ;
#78 = PERSON_AND_ORGANIZATION ( #241, #272 ) ;
#79 = ADVANCED_FACE ( 'NONE', ( #256 ), #85, .T. ) ;
#80 = DATE_TIME_ROLE ( 'creation_date' ) ;
#81 = VERTEX_POINT ( 'NONE', #127 ) ;
#82 = PERSON_AND_ORGANIZATION ( #241, #272 ) ;
#83 = SHAPE_DEFINITION_REPRESENTATION ( #76, #54 ) ;
#84 = CARTESIAN_POINT ( 'NONE',  ( 0.0000000000000000000, 0.0000000000000000000, 0.0000000000000000000 ) ) ;
#85 = PLANE ( 'NONE',  #251 ) ;
#86 = AXIS2_PLACEMENT_3D ( 'NONE', #48, #126, #299 ) ;
#87 = PERSON_AND_ORGANIZATION ( #241, #272 ) ;
#88 = PRODUCT_RELATED_PRODUCT_CATEGORY ( 'detail', '', ( #285 ) ) ;
#89 = DIRECTION ( 'NONE',  ( 0.0000000000000000000, 1.000000000000000000, 0.0000000000000000000 ) ) ;
#90 = CYLINDRICAL_SURFACE ( 'NONE', #287, 0.8399999999999943068 ) ;
#91 = ORIENTED_EDGE ( 'NONE', *, *, #189, .T. ) ;
#92 = EDGE_CURVE ( 'NONE', #264, #264, #238, .T. ) ;
#93 = AXIS2_PLACEMENT_3D ( 'NONE', #253, #17, #89 ) ;
#94 = AXIS2_PLACEMENT_3D ( 'NONE', #281, #69, #1 ) ;
#95 = PLANE ( 'NONE',  #300 ) ;
#96 = DIRECTION ( 'NONE',  ( 4.275831445896958607E-31, 1.000000000000000000, 1.224646799147353454E-16 ) ) ;
#97 = DIRECTION ( 'NONE',  ( -3.491481338843133355E-15, 1.224646799147353207E-16, -1.000000000000000000 ) ) ;
#98 = PRODUCT_DEFINITION_FORMATION_WITH_SPECIFIED_SOURCE ( 'ANY', '', #285, .NOT_KNOWN. ) ;
#99 = CARTESIAN_POINT ( 'NONE',  ( 2.793185071074506684E-14, 0.9399999999999989475, 8.000000000000000000 ) ) ;
#100 = FACE_BOUND ( 'NONE', #41, .T. ) ;
#101 = CARTESIAN_POINT ( 'NONE',  ( -1.892735826383161794E-31, 0.7956624327025947352, -5.421010862427522170E-17 ) ) ;
#102 = CIRCLE ( 'NONE', #108, 1.500000000000001554 ) ;
#103 = EDGE_LOOP ( 'NONE', ( #185 ) ) ;
#104 = SECURITY_CLASSIFICATION ( '', '', #230 ) ;
#105 = VERTEX_POINT ( 'NONE', #10 ) ;
#106 = PERSON_AND_ORGANIZATION ( #241, #272 ) ;
#107 = ORIENTED_EDGE ( 'NONE', *, *, #4, .F. ) ;
#108 = AXIS2_PLACEMENT_3D ( 'NONE', #42, #64, #274 ) ;
#109 = DATE_AND_TIME ( #137, #273 ) ;
#110 = APPLICATION_CONTEXT ( 'configuration controlled 3d designs of mechanical parts and assemblies' ) ;
#111 = CARTESIAN_POINT ( 'NONE',  ( 0.0000000000000000000, 0.0000000000000000000, 0.0000000000000000000 ) ) ;
#112 = CC_DESIGN_PERSON_AND_ORGANIZATION_ASSIGNMENT ( #87, #205, ( #104 ) ) ;
#113 = APPROVAL_STATUS ( 'not_yet_approved' ) ;
#114 = CARTESIAN_POINT ( 'NONE',  ( 2.793185071074506684E-14, -9.797174393178825657E-16, 8.000000000000000000 ) ) ;
#115 = AXIS2_PLACEMENT_3D ( 'NONE', #52, #176, #222 ) ;
#116 = ORIENTED_EDGE ( 'NONE', *, *, #157, .F. ) ;
#117 = DIRECTION ( 'NONE',  ( 4.275831445896958607E-31, 1.000000000000000000, 1.224646799147353207E-16 ) ) ;
#118 = ADVANCED_FACE ( 'NONE', ( #255, #139 ), #90, .T. ) ;
#119 = CARTESIAN_POINT ( 'NONE',  ( 1.745740669421566678E-13, -6.123233995736766085E-15, 50.00000000000000000 ) ) ;
#120 = CIRCLE ( 'NONE', #159, 0.8399999999999938627 ) ;
#121 = AXIS2_PLACEMENT_3D ( 'NONE', #147, #123, #259 ) ;
#122 = DIRECTION ( 'NONE',  ( 4.275831445896958607E-31, 1.000000000000000000, 1.224646799147353454E-16 ) ) ;
#123 = DIRECTION ( 'NONE',  ( 3.491481338843133355E-15, -1.224646799147353207E-16, 1.000000000000000000 ) ) ;
#124 = FACE_OUTER_BOUND ( 'NONE', #152, .T. ) ;
#125 = APPROVAL_PERSON_ORGANIZATION ( #55, #70, #291 ) ;
#126 = DIRECTION ( 'NONE',  ( -3.491481338843133355E-15, 1.224646799147353207E-16, -1.000000000000000000 ) ) ;
#127 = CARTESIAN_POINT ( 'NONE',  ( 2.853659301800060557E-14, 0.8399999999999928635, 8.173205080756900998 ) ) ;
#128 = EDGE_CURVE ( 'NONE', #81, #81, #120, .T. ) ;
#129 = EDGE_LOOP ( 'NONE', ( #15 ) ) ;
#130 = APPROVAL_PERSON_ORGANIZATION ( #292, #47, #277 ) ;
#131 = CC_DESIGN_PERSON_AND_ORGANIZATION_ASSIGNMENT ( #82, #74, ( #285 ) ) ;
#132 = DATE_AND_TIME ( #182, #2 ) ;
#133 = VERTEX_POINT ( 'NONE', #226 ) ;
#134 = CIRCLE ( 'NONE', #11, 0.8703844939755744914 ) ;
#135 = EDGE_LOOP ( 'NONE', ( #298 ) ) ;
#136 = ADVANCED_FACE ( 'NONE', ( #206, #276 ), #8, .T. ) ;
#137 = CALENDAR_DATE ( 2021, 1, 12 ) ;
#138 = EDGE_LOOP ( 'NONE', ( #107 ) ) ;
#139 = FACE_OUTER_BOUND ( 'NONE', #229, .T. ) ;
#140 = AXIS2_PLACEMENT_3D ( 'NONE', #66, #168, #286 ) ;
#141 = APPROVAL ( #179, 'UNSPECIFIED' ) ;
#142 = ORIENTED_EDGE ( 'NONE', *, *, #128, .F. ) ;
#143 = EDGE_LOOP ( 'NONE', ( #142 ) ) ;
#144 = FACE_OUTER_BOUND ( 'NONE', #236, .T. ) ;
#145 = CARTESIAN_POINT ( 'NONE',  ( 2.793185071074506684E-14, 7.048870978510717893E-33, 8.000000000000000000 ) ) ;
#146 = CC_DESIGN_PERSON_AND_ORGANIZATION_ASSIGNMENT ( #163, #12, ( #98 ) ) ;
#147 = CARTESIAN_POINT ( 'NONE',  ( 7.303488809519624666E-14, -2.561719031312448319E-15, 20.91802332799969122 ) ) ;
#148 = CARTESIAN_POINT ( 'NONE',  ( 7.303488809519624666E-14, -2.561719031312448319E-15, 20.91802332799969122 ) ) ;
#149 = AXIS2_PLACEMENT_3D ( 'NONE', #23, #24, #303 ) ;
#150 = FACE_OUTER_BOUND ( 'NONE', #103, .T. ) ;
#151 = PRODUCT_DEFINITION ( 'UNKNOWN', '', #98, #261 ) ;
#152 = EDGE_LOOP ( 'NONE', ( #192 ) ) ;
#153 = APPROVAL_DATE_TIME ( #202, #141 ) ;
#154 = APPROVAL_STATUS ( 'not_yet_approved' ) ;
#155 = CIRCLE ( 'NONE', #9, 1.499999999999996669 ) ;
#156 = ORIENTED_EDGE ( 'NONE', *, *, #289, .F. ) ;
#157 = EDGE_CURVE ( 'NONE', #246, #246, #102, .T. ) ;
#158 = EDGE_LOOP ( 'NONE', ( #161 ) ) ;
#159 = AXIS2_PLACEMENT_3D ( 'NONE', #190, #212, #37 ) ;
#160 = LOCAL_TIME ( 15, 4, 28.00000000000000000, #30 ) ;
#161 = ORIENTED_EDGE ( 'NONE', *, *, #92, .F. ) ;
#162 = DIRECTION ( 'NONE',  ( 4.275831445896958607E-31, 1.000000000000000000, 1.224646799147353207E-16 ) ) ;
#163 = PERSON_AND_ORGANIZATION ( #241, #272 ) ;
#164 = DIRECTION ( 'NONE',  ( -3.491481338843133355E-15, 1.224646799147353207E-16, -1.000000000000000000 ) ) ;
#165 = CC_DESIGN_APPROVAL ( #70, ( #98 ) ) ;
#166 = EDGE_LOOP ( 'NONE', ( #156 ) ) ;
#167 = FACE_OUTER_BOUND ( 'NONE', #177, .T. ) ;
#168 = DIRECTION ( 'NONE',  ( -3.491481338843133355E-15, 1.224646799147353207E-16, -1.000000000000000000 ) ) ;
#169 = CC_DESIGN_DATE_AND_TIME_ASSIGNMENT ( #224, #80, ( #151 ) ) ;
#170 = CIRCLE ( 'NONE', #93, 0.9399999999999999467 ) ;
#171 = VERTEX_POINT ( 'NONE', #99 ) ;
#172 = CARTESIAN_POINT ( 'NONE',  ( 1.745740669421566678E-13, -6.123233995736766085E-15, 50.00000000000000000 ) ) ;
#173 = ADVANCED_FACE ( 'NONE', ( #258, #19 ), #204, .T. ) ;
#174 = VERTEX_POINT ( 'NONE', #45 ) ;
#175 = CONICAL_SURFACE ( 'NONE', #228, 1.200000000000001732, 0.7853981633974453924 ) ;
#176 = DIRECTION ( 'NONE',  ( 0.0000000000000000000, 0.0000000000000000000, 1.000000000000000000 ) ) ;
#177 = EDGE_LOOP ( 'NONE', ( #295 ) ) ;
#178 = COORDINATED_UNIVERSAL_TIME_OFFSET ( 1, 0, .AHEAD. ) ;
#179 = APPROVAL_STATUS ( 'not_yet_approved' ) ;
#180 = VERTEX_POINT ( 'NONE', #266 ) ;
#181 = CC_DESIGN_SECURITY_CLASSIFICATION ( #104, ( #98 ) ) ;
#182 = CALENDAR_DATE ( 2021, 1, 12 ) ;
#183 = ADVANCED_FACE ( 'NONE', ( #194, #72 ), #175, .T. ) ;
#184 = CALENDAR_DATE ( 2021, 1, 12 ) ;
#185 = ORIENTED_EDGE ( 'NONE', *, *, #157, .T. ) ;
#186 = AXIS2_PLACEMENT_3D ( 'NONE', #294, #187, #278 ) ;
#187 = DIRECTION ( 'NONE',  ( 3.491481338843133355E-15, -1.224646799147353207E-16, 1.000000000000000000 ) ) ;
#188 = DIRECTION ( 'NONE',  ( -4.275831445896958607E-31, -1.000000000000000000, -1.224646799147353207E-16 ) ) ;
#189 = EDGE_CURVE ( 'NONE', #269, #269, #257, .T. ) ;
#190 = CARTESIAN_POINT ( 'NONE',  ( 2.853659301800060557E-14, -1.000928944092382267E-15, 8.173205080756900998 ) ) ;
#191 = COORDINATED_UNIVERSAL_TIME_OFFSET ( 1, 0, .AHEAD. ) ;
#192 = ORIENTED_EDGE ( 'NONE', *, *, #189, .F. ) ;
#193 = CIRCLE ( 'NONE', #50, 0.9399999999999999467 ) ;
#194 = FACE_OUTER_BOUND ( 'NONE', #235, .T. ) ;
#195 = CARTESIAN_POINT ( 'NONE',  ( 6.056776150402963091E-14, -2.124431095542013992E-15, 17.34729635533384595 ) ) ;
#196 = DIRECTION ( 'NONE',  ( -3.491481338843133355E-15, 1.224646799147353207E-16, -1.000000000000000000 ) ) ;
#197 = CONICAL_SURFACE ( 'NONE', #121, 1.499999999999996669, 0.1745329251994265363 ) ;
#198 = FACE_BOUND ( 'NONE', #166, .T. ) ;
#199 = ADVANCED_FACE ( 'NONE', ( #71 ), #237, .F. ) ;
#200 = MECHANICAL_CONTEXT ( 'NONE', #110, 'mechanical' ) ;
#201 = CARTESIAN_POINT ( 'NONE',  ( 5.935518276033326704E-14, 0.8399999999999926414, 17.00000000000000000 ) ) ;
#202 = DATE_AND_TIME ( #268, #283 ) ;
#203 = ADVANCED_FACE ( 'NONE', ( #46 ), #95, .F. ) ;
#204 = CYLINDRICAL_SURFACE ( 'NONE', #265, 0.9399999999999993916 ) ;
#205 = PERSON_AND_ORGANIZATION_ROLE ( 'classification_officer' ) ;
#206 = FACE_BOUND ( 'NONE', #158, .T. ) ;
#207 = APPROVAL_DATE_TIME ( #109, #47 ) ;
#208 = AXIS2_PLACEMENT_3D ( 'NONE', #40, #164, #162 ) ;
#209 = EDGE_LOOP ( 'NONE', ( #233 ) ) ;
#210 = CIRCLE ( 'NONE', #94, 0.9399999999999989475 ) ;
#211 = ADVANCED_FACE ( 'NONE', ( #65, #100 ), #44, .T. ) ;
#212 = DIRECTION ( 'NONE',  ( -3.491481338843133355E-15, 1.224646799147353207E-16, -1.000000000000000000 ) ) ;
#213 = DIRECTION ( 'NONE',  ( -3.491481338843133355E-15, 1.224646799147353207E-16, -1.000000000000000000 ) ) ;
#214 = LOCAL_TIME ( 15, 4, 28.00000000000000000, #191 ) ;
#215 = CARTESIAN_POINT ( 'NONE',  ( 5.935518276033326704E-14, -2.081899558550500280E-15, 17.00000000000000000 ) ) ;
#216 = DIRECTION ( 'NONE',  ( -4.275831445896958607E-31, -1.000000000000000000, -1.224646799147353207E-16 ) ) ;
#217 = FACE_OUTER_BOUND ( 'NONE', #129, .T. ) ;
#218 = ADVANCED_FACE ( 'NONE', ( #198, #167 ), #197, .T. ) ;
#219 = AXIS2_PLACEMENT_3D ( 'NONE', #260, #245, #96 ) ;
#220 = CARTESIAN_POINT ( 'NONE',  ( -2.647427138225894327E-31, 9.285924386118690692E-33, -7.582532688268905912E-17 ) ) ;
#221 = APPLICATION_PROTOCOL_DEFINITION ( 'international standard', 'config_control_design', 1994, #73 ) ;
#222 = DIRECTION ( 'NONE',  ( 1.000000000000000000, 0.0000000000000000000, 0.0000000000000000000 ) ) ;
#223 = ADVANCED_FACE ( 'NONE', ( #217, #150 ), #284, .T. ) ;
#224 = DATE_AND_TIME ( #32, #160 ) ;
#225 = APPROVAL_DATE_TIME ( #132, #70 ) ;
#226 = CARTESIAN_POINT ( 'NONE',  ( 6.056776150402963091E-14, 0.8703844939755723820, 17.34729635533384595 ) ) ;
#227 = ORIENTED_EDGE ( 'NONE', *, *, #128, .T. ) ;
#228 = AXIS2_PLACEMENT_3D ( 'NONE', #119, #301, #279 ) ;
#229 = EDGE_LOOP ( 'NONE', ( #91 ) ) ;
#230 = SECURITY_CLASSIFICATION_LEVEL ( 'unclassified' ) ;
#231 = EDGE_LOOP ( 'NONE', ( #7 ) ) ;
#232 = CC_DESIGN_PERSON_AND_ORGANIZATION_ASSIGNMENT ( #288, #247, ( #151 ) ) ;
#233 = ORIENTED_EDGE ( 'NONE', *, *, #34, .T. ) ;
#234 = CIRCLE ( 'NONE', #239, 1.200000000000001732 ) ;
#235 = EDGE_LOOP ( 'NONE', ( #116 ) ) ;
#236 = EDGE_LOOP ( 'NONE', ( #293 ) ) ;
#237 = PLANE ( 'NONE',  #77 ) ;
#238 = CIRCLE ( 'NONE', #208, 0.7956624327025947352 ) ;
#239 = AXIS2_PLACEMENT_3D ( 'NONE', #172, #97, #25 ) ;
#240 = DIRECTION ( 'NONE',  ( 3.491481338843133355E-15, -1.224646799147353207E-16, 1.000000000000000000 ) ) ;
#241 = PERSON ( 'UNSPECIFIED', 'UNSPECIFIED', 'UNSPECIFIED', ('UNSPECIFIED'), ('UNSPECIFIED'), ('UNSPECIFIED') ) ;
#242 = EDGE_CURVE ( 'NONE', #105, #105, #234, .T. ) ;
#243 = DIRECTION ( 'NONE',  ( -4.275831445896958607E-31, -1.000000000000000000, -1.224646799147353207E-16 ) ) ;
#244 = FACE_OUTER_BOUND ( 'NONE', #135, .T. ) ;
#245 = DIRECTION ( 'NONE',  ( -3.491481338843133355E-15, 1.224646799147353207E-16, -1.000000000000000000 ) ) ;
#246 = VERTEX_POINT ( 'NONE', #27 ) ;
#247 = PERSON_AND_ORGANIZATION_ROLE ( 'creator' ) ;
#248 = COORDINATED_UNIVERSAL_TIME_OFFSET ( 1, 0, .AHEAD. ) ;
#249 = EDGE_LOOP ( 'NONE', ( #57 ) ) ;
#250 = ADVANCED_FACE ( 'NONE', ( #124, #144 ), #63, .F. ) ;
#251 = AXIS2_PLACEMENT_3D ( 'NONE', #252, #62, #188 ) ;
#252 = CARTESIAN_POINT ( 'NONE',  ( 2.793185071074506684E-14, 7.048870978510717893E-33, 8.000000000000000000 ) ) ;
#253 = CARTESIAN_POINT ( 'NONE',  ( 2.793185071074506684E-14, -9.797174393178825657E-16, 8.000000000000000000 ) ) ;
#254 = EDGE_CURVE ( 'NONE', #180, #180, #155, .T. ) ;
#255 = FACE_OUTER_BOUND ( 'NONE', #143, .T. ) ;
#256 = FACE_OUTER_BOUND ( 'NONE', #138, .T. ) ;
#257 = CIRCLE ( 'NONE', #31, 0.8399999999999947509 ) ;
#258 = FACE_OUTER_BOUND ( 'NONE', #249, .T. ) ;
#259 = DIRECTION ( 'NONE',  ( 0.0000000000000000000, -1.000000000000000000, 0.0000000000000000000 ) ) ;
#260 = CARTESIAN_POINT ( 'NONE',  ( 0.0000000000000000000, 0.0000000000000000000, 0.0000000000000000000 ) ) ;
#261 = DESIGN_CONTEXT ( 'detailed design', #73, 'design' ) ;
#262 = DIRECTION ( 'NONE',  ( 0.0000000000000000000, 1.000000000000000000, 0.0000000000000000000 ) ) ;
#263 = DIRECTION ( 'NONE',  ( 0.0000000000000000000, 1.000000000000000000, 0.0000000000000000000 ) ) ;
#264 = VERTEX_POINT ( 'NONE', #101 ) ;
#265 = AXIS2_PLACEMENT_3D ( 'NONE', #84, #3, #122 ) ;
#266 = CARTESIAN_POINT ( 'NONE',  ( 7.303488809519624666E-14, 1.499999999999994005, 20.91802332799969122 ) ) ;
#267 = EDGE_LOOP ( 'NONE', ( #61 ) ) ;
#268 = CALENDAR_DATE ( 2021, 1, 12 ) ;
#269 = VERTEX_POINT ( 'NONE', #201 ) ;
#270 = EDGE_LOOP ( 'NONE', ( #75 ) ) ;
#271 = DATE_TIME_ROLE ( 'classification_date' ) ;
#272 = ORGANIZATION ( 'UNSPECIFIED', 'UNSPECIFIED', '' ) ;
#273 = LOCAL_TIME ( 15, 4, 28.00000000000000000, #38 ) ;
#274 = DIRECTION ( 'NONE',  ( 0.0000000000000000000, 1.000000000000000000, 0.0000000000000000000 ) ) ;
#275 = ORIENTED_EDGE ( 'NONE', *, *, #4, .T. ) ;
#276 = FACE_OUTER_BOUND ( 'NONE', #231, .T. ) ;
#277 = APPROVAL_ROLE ( '' ) ;
#278 = DIRECTION ( 'NONE',  ( -4.097723285930293875E-31, -1.000000000000000000, -1.153406566473942246E-16 ) ) ;
#279 = DIRECTION ( 'NONE',  ( 0.0000000000000000000, 1.000000000000000000, 0.0000000000000000000 ) ) ;
#280 = PLANE ( 'NONE',  #140 ) ;
#281 = CARTESIAN_POINT ( 'NONE',  ( 8.728703347107829444E-16, -3.061616997868381785E-17, 0.2499999999999998890 ) ) ;
#282 = EDGE_CURVE ( 'NONE', #51, #51, #210, .T. ) ;
#283 = LOCAL_TIME ( 15, 4, 28.00000000000000000, #178 ) ;
#284 = CYLINDRICAL_SURFACE ( 'NONE', #219, 1.499999999999999112 ) ;
#285 = PRODUCT ( '971918', '971918', '', ( #200 ) ) ;
#286 = DIRECTION ( 'NONE',  ( 4.275831445896958607E-31, 1.000000000000000000, 1.224646799147353207E-16 ) ) ;
#287 = AXIS2_PLACEMENT_3D ( 'NONE', #111, #18, #117 ) ;
#288 = PERSON_AND_ORGANIZATION ( #241, #272 ) ;
#289 = EDGE_CURVE ( 'NONE', #133, #133, #134, .T. ) ;
#290 = PERSON_AND_ORGANIZATION_ROLE ( 'creator' ) ;
#291 = APPROVAL_ROLE ( '' ) ;
#292 = PERSON_AND_ORGANIZATION ( #241, #272 ) ;
#293 = ORIENTED_EDGE ( 'NONE', *, *, #289, .T. ) ;
#294 = CARTESIAN_POINT ( 'NONE',  ( 8.728703347107829444E-16, -3.061616997868381785E-17, 0.2499999999999998890 ) ) ;
#295 = ORIENTED_EDGE ( 'NONE', *, *, #254, .T. ) ;
#296 = DIRECTION ( 'NONE',  ( 0.0000000000000000000, 1.000000000000000000, 0.0000000000000000000 ) ) ;
#297 = ADVANCED_FACE ( 'NONE', ( #244 ), #280, .F. ) ;
#298 = ORIENTED_EDGE ( 'NONE', *, *, #242, .F. ) ;
#299 = DIRECTION ( 'NONE',  ( 4.275831445896958607E-31, 1.000000000000000000, 1.224646799147353207E-16 ) ) ;
#300 = AXIS2_PLACEMENT_3D ( 'NONE', #145, #49, #216 ) ;
#301 = DIRECTION ( 'NONE',  ( -3.491481338843133355E-15, 1.224646799147353207E-16, -1.000000000000000000 ) ) ;
#302 = UNCERTAINTY_MEASURE_WITH_UNIT (LENGTH_MEASURE( 1.000000000000000082E-05 ), #5, 'distance_accuracy_value', 'NONE');
#303 = DIRECTION ( 'NONE',  ( 0.0000000000000000000, 1.000000000000000000, 0.0000000000000000000 ) ) ;
ENDSEC;
END-ISO-10303-21;
