ISO-10303-21;
HEADER;
FILE_DESCRIPTION (( 'STEP AP203' ),
    '1' );
FILE_NAME ('971650.step',
    '2021-12-17T10:59:31',
    ( '' ),
    ( '' ),
    'SwSTEP 2.0',
    'SolidWorks 2019',
    '' );
FILE_SCHEMA (( 'CONFIG_CONTROL_DESIGN' ));
ENDSEC;

DATA;
#1 = AXIS2_PLACEMENT_3D ( 'NONE', #280, #236, #75 ) ;
#2 = DIRECTION ( 'NONE',  ( -3.491481338843133355E-15, 1.224646799147353207E-16, -1.000000000000000000 ) ) ;
#3 = VERTEX_POINT ( 'NONE', #239 ) ;
#4 = PERSON_AND_ORGANIZATION_ROLE ( 'design_owner' ) ;
#5 = AXIS2_PLACEMENT_3D ( 'NONE', #43, #115, #136 ) ;
#6 = ADVANCED_FACE ( 'NONE', ( #155, #180 ), #133, .T. ) ;
#7 = CARTESIAN_POINT ( 'NONE',  ( 2.094888803305880013E-14, -7.347880794884119736E-16, 6.000000000000000000 ) ) ;
#8 = ORIENTED_EDGE ( 'NONE', *, *, #295, .T. ) ;
#9 = CARTESIAN_POINT ( 'NONE',  ( 2.694598937189581496E-14, 0.8361483474218589507, 7.717638090205028334 ) ) ;
#10 = EDGE_LOOP ( 'NONE', ( #218 ) ) ;
#11 = PRODUCT ( '971650', '971650', '', ( #78 ) ) ;
#12 = ORIENTED_EDGE ( 'NONE', *, *, #95, .F. ) ;
#13 = AXIS2_PLACEMENT_3D ( 'NONE', #285, #55, #28 ) ;
#14 = APPROVAL_ROLE ( '' ) ;
#15 = ADVANCED_FACE ( 'NONE', ( #113 ), #88, .F. ) ;
#16 = DATE_AND_TIME ( #151, #85 ) ;
#17 = ADVANCED_FACE ( 'NONE', ( #68, #19 ), #159, .T. ) ;
#18 = APPROVAL_PERSON_ORGANIZATION ( #66, #292, #14 ) ;
#19 = FACE_OUTER_BOUND ( 'NONE', #149, .T. ) ;
#20 = FACE_OUTER_BOUND ( 'NONE', #269, .T. ) ;
#21 = DIRECTION ( 'NONE',  ( 4.598630884562454131E-31, 1.000000000000000000, 1.294399521133120177E-16 ) ) ;
#22 = FACE_OUTER_BOUND ( 'NONE', #197, .T. ) ;
#23 = FACE_OUTER_BOUND ( 'NONE', #128, .T. ) ;
#24 = CARTESIAN_POINT ( 'NONE',  ( 2.094888803305880013E-14, -7.347880794884119736E-16, 6.000000000000000000 ) ) ;
#25 = PERSON_AND_ORGANIZATION ( #179, #84 ) ;
#26 = AXIS2_PLACEMENT_3D ( 'NONE', #184, #277, #50 ) ;
#27 = CARTESIAN_POINT ( 'NONE',  ( 2.513866563967056016E-14, 0.7679999999999987947, 7.200000000000000178 ) ) ;
#28 = DIRECTION ( 'NONE',  ( 1.000000000000000000, 0.0000000000000000000, 0.0000000000000000000 ) ) ;
#29 = EDGE_LOOP ( 'NONE', ( #8 ) ) ;
#30 = VERTEX_POINT ( 'NONE', #122 ) ;
#31 = ADVANCED_BREP_SHAPE_REPRESENTATION ( '971650', ( #32, #234, #13 ), #182 ) ;
#32 = MANIFOLD_SOLID_BREP ( 'Corps-Déplacer/Copier1[1]', #221 ) ;
#33 = ORIENTED_EDGE ( 'NONE', *, *, #210, .F. ) ;
#34 = PERSON_AND_ORGANIZATION ( #179, #84 ) ;
#35 = CC_DESIGN_PERSON_AND_ORGANIZATION_ASSIGNMENT ( #199, #291, ( #143 ) ) ;
#36 = PERSON_AND_ORGANIZATION_ROLE ( 'creator' ) ;
#37 = CONICAL_SURFACE ( 'NONE', #98, 0.6282076098516272689, 1.047197551196593190 ) ;
#38 = CALENDAR_DATE ( 2021, 17, 12 ) ;
#39 = ADVANCED_FACE ( 'NONE', ( #204, #137 ), #250, .F. ) ;
#40 = EDGE_LOOP ( 'NONE', ( #243 ) ) ;
#41 = CIRCLE ( 'NONE', #196, 0.3150000000000000577 ) ;
#42 = FACE_OUTER_BOUND ( 'NONE', #29, .T. ) ;
#43 = CARTESIAN_POINT ( 'NONE',  ( 2.908103961080348460E-14, -1.020025559897399313E-15, 8.329140782530773279 ) ) ;
#44 = DIRECTION ( 'NONE',  ( 5.015442563508433415E-31, 1.000000000000000000, 1.411721578757169122E-16 ) ) ;
#45 = DIRECTION ( 'NONE',  ( 4.275831445896958607E-31, 1.000000000000000000, 1.224646799147353207E-16 ) ) ;
#46 = CC_DESIGN_PERSON_AND_ORGANIZATION_ASSIGNMENT ( #34, #272, ( #175 ) ) ;
#47 = CARTESIAN_POINT ( 'NONE',  ( -4.005189922659615719E-32, 1.404831514977403958E-33, -1.147131986100402528E-17 ) ) ;
#48 = CARTESIAN_POINT ( 'NONE',  ( 1.326762908760390423E-13, -4.653657836759941941E-15, 38.00000000000000000 ) ) ;
#49 = LOCAL_TIME ( 11, 59, 31.00000000000000000, #127 ) ;
#50 = DIRECTION ( 'NONE',  ( 4.275831445896958607E-31, 1.000000000000000000, 1.224646799147353207E-16 ) ) ;
#51 = ADVANCED_FACE ( 'NONE', ( #87, #202 ), #156, .T. ) ;
#52 =( NAMED_UNIT ( * ) SI_UNIT ( $, .STERADIAN. ) SOLID_ANGLE_UNIT ( ) );
#53 = CARTESIAN_POINT ( 'NONE',  ( 2.094888803305880013E-14, 0.7679999999999987947, 6.000000000000000000 ) ) ;
#54 = LOCAL_TIME ( 11, 59, 31.00000000000000000, #86 ) ;
#55 = DIRECTION ( 'NONE',  ( 0.0000000000000000000, 0.0000000000000000000, 1.000000000000000000 ) ) ;
#56 = EDGE_LOOP ( 'NONE', ( #145 ) ) ;
#57 = AXIS2_PLACEMENT_3D ( 'NONE', #135, #276, #254 ) ;
#58 = EDGE_LOOP ( 'NONE', ( #83 ) ) ;
#59 = UNCERTAINTY_MEASURE_WITH_UNIT (LENGTH_MEASURE( 1.000000000000000082E-05 ), #125, 'distance_accuracy_value', 'NONE');
#60 = PERSON_AND_ORGANIZATION ( #179, #84 ) ;
#61 = ORIENTED_EDGE ( 'NONE', *, *, #246, .F. ) ;
#62 = PERSON_AND_ORGANIZATION ( #179, #84 ) ;
#63 = APPLICATION_CONTEXT ( 'configuration controlled 3d designs of mechanical parts and assemblies' ) ;
#64 = CIRCLE ( 'NONE', #132, 0.6282076098516272689 ) ;
#65 = LOCAL_TIME ( 11, 59, 31.00000000000000000, #100 ) ;
#66 = PERSON_AND_ORGANIZATION ( #179, #84 ) ;
#67 = EDGE_CURVE ( 'NONE', #215, #215, #222, .T. ) ;
#68 = FACE_OUTER_BOUND ( 'NONE', #40, .T. ) ;
#69 = DIRECTION ( 'NONE',  ( -3.491481338843133355E-15, 1.224646799147353207E-16, -1.000000000000000000 ) ) ;
#70 = DIRECTION ( 'NONE',  ( 4.275831445896958607E-31, 1.000000000000000000, 1.224646799147353207E-16 ) ) ;
#71 = DIRECTION ( 'NONE',  ( 3.491481338843133355E-15, -1.224646799147353207E-16, 1.000000000000000000 ) ) ;
#72 = CARTESIAN_POINT ( 'NONE',  ( 1.326762908760390423E-13, -4.653657836759941941E-15, 38.00000000000000000 ) ) ;
#73 = DIRECTION ( 'NONE',  ( 0.0000000000000000000, 1.000000000000000000, 0.0000000000000000000 ) ) ;
#74 = ADVANCED_FACE ( 'NONE', ( #303, #20 ), #170, .T. ) ;
#75 = DIRECTION ( 'NONE',  ( 0.0000000000000000000, 1.000000000000000000, 0.0000000000000000000 ) ) ;
#76 = PRODUCT_DEFINITION_SHAPE ( 'NONE', 'NONE',  #262 ) ;
#77 = PERSON_AND_ORGANIZATION ( #179, #84 ) ;
#78 = MECHANICAL_CONTEXT ( 'NONE', #63, 'mechanical' ) ;
#79 = AXIS2_PLACEMENT_3D ( 'NONE', #186, #265, #82 ) ;
#80 = VERTEX_POINT ( 'NONE', #124 ) ;
#81 = ORIENTED_EDGE ( 'NONE', *, *, #210, .T. ) ;
#82 = DIRECTION ( 'NONE',  ( 0.0000000000000000000, 1.000000000000000000, 0.0000000000000000000 ) ) ;
#83 = ORIENTED_EDGE ( 'NONE', *, *, #146, .F. ) ;
#84 = ORGANIZATION ( 'UNSPECIFIED', 'UNSPECIFIED', '' ) ;
#85 = LOCAL_TIME ( 11, 59, 31.00000000000000000, #176 ) ;
#86 = COORDINATED_UNIVERSAL_TIME_OFFSET ( 1, 0, .AHEAD. ) ;
#87 = FACE_BOUND ( 'NONE', #56, .T. ) ;
#88 = PLANE ( 'NONE',  #96 ) ;
#89 = CARTESIAN_POINT ( 'NONE',  ( 6.313663087721761779E-16, -2.214534903925670875E-17, 0.1808304978600782098 ) ) ;
#90 = CC_DESIGN_PERSON_AND_ORGANIZATION_ASSIGNMENT ( #259, #4, ( #11 ) ) ;
#91 = CARTESIAN_POINT ( 'NONE',  ( 1.326762908760390423E-13, 5.999039130647358587E-33, 38.00000000000000000 ) ) ;
#92 = AXIS2_PLACEMENT_3D ( 'NONE', #203, #211, #297 ) ;
#93 = FACE_OUTER_BOUND ( 'NONE', #10, .T. ) ;
#94 = DIRECTION ( 'NONE',  ( 3.491481338843133355E-15, -1.224646799147353207E-16, 1.000000000000000000 ) ) ;
#95 = EDGE_CURVE ( 'NONE', #30, #30, #130, .T. ) ;
#96 = AXIS2_PLACEMENT_3D ( 'NONE', #91, #225, #70 ) ;
#97 = PLANE ( 'NONE',  #92 ) ;
#98 = AXIS2_PLACEMENT_3D ( 'NONE', #160, #94, #255 ) ;
#99 = COORDINATED_UNIVERSAL_TIME_OFFSET ( 1, 0, .AHEAD. ) ;
#100 = COORDINATED_UNIVERSAL_TIME_OFFSET ( 1, 0, .AHEAD. ) ;
#101 = CC_DESIGN_APPROVAL ( #292, ( #143 ) ) ;
#102 = APPLICATION_PROTOCOL_DEFINITION ( 'international standard', 'config_control_design', 1994, #226 ) ;
#103 = EDGE_LOOP ( 'NONE', ( #270 ) ) ;
#104 = ADVANCED_FACE ( 'NONE', ( #93, #22 ), #209, .T. ) ;
#105 = EDGE_LOOP ( 'NONE', ( #275 ) ) ;
#106 = ORIENTED_EDGE ( 'NONE', *, *, #154, .T. ) ;
#107 = DATE_TIME_ROLE ( 'classification_date' ) ;
#108 = SHAPE_DEFINITION_REPRESENTATION ( #76, #31 ) ;
#109 = AXIS2_PLACEMENT_3D ( 'NONE', #139, #71, #301 ) ;
#110 = DIRECTION ( 'NONE',  ( 4.387221103628752031E-31, 1.000000000000000000, 1.224646799147353207E-16 ) ) ;
#111 = CC_DESIGN_PERSON_AND_ORGANIZATION_ASSIGNMENT ( #62, #36, ( #143 ) ) ;
#112 = CARTESIAN_POINT ( 'NONE',  ( 2.694598937189581496E-14, -9.451380784147279637E-16, 7.717638090205028334 ) ) ;
#113 = FACE_OUTER_BOUND ( 'NONE', #195, .T. ) ;
#114 = FACE_OUTER_BOUND ( 'NONE', #249, .T. ) ;
#115 = DIRECTION ( 'NONE',  ( 3.491481338843133355E-15, -1.224646799147353207E-16, 1.000000000000000000 ) ) ;
#116 = ADVANCED_FACE ( 'NONE', ( #162 ), #97, .F. ) ;
#117 = DIRECTION ( 'NONE',  ( -3.491481338843133355E-15, 1.224646799147353207E-16, -1.000000000000000000 ) ) ;
#118 = DIRECTION ( 'NONE',  ( 0.0000000000000000000, 1.000000000000000000, 0.0000000000000000000 ) ) ;
#119 = AXIS2_PLACEMENT_3D ( 'NONE', #157, #252, #45 ) ;
#120 = VERTEX_POINT ( 'NONE', #167 ) ;
#121 = APPROVAL_PERSON_ORGANIZATION ( #77, #185, #193 ) ;
#122 = CARTESIAN_POINT ( 'NONE',  ( 1.326762908760390423E-13, 0.7999999999999949374, 38.00000000000000000 ) ) ;
#123 = PRODUCT_RELATED_PRODUCT_CATEGORY ( 'detail', '', ( #11 ) ) ;
#124 = CARTESIAN_POINT ( 'NONE',  ( 2.908103961080348460E-14, 0.9999999999999947820, 8.329140782530773279 ) ) ;
#125 =( LENGTH_UNIT ( ) NAMED_UNIT ( * ) SI_UNIT ( .MILLI., .METRE. ) );
#126 = ORIENTED_EDGE ( 'NONE', *, *, #287, .T. ) ;
#127 = COORDINATED_UNIVERSAL_TIME_OFFSET ( 1, 0, .AHEAD. ) ;
#128 = EDGE_LOOP ( 'NONE', ( #298 ) ) ;
#129 = CLOSED_SHELL ( 'NONE', ( #116, #241, #74, #6, #235 ) ) ;
#130 = CIRCLE ( 'NONE', #273, 0.7999999999999996003 ) ;
#131 = SECURITY_CLASSIFICATION_LEVEL ( 'unclassified' ) ;
#132 = AXIS2_PLACEMENT_3D ( 'NONE', #89, #253, #21 ) ;
#133 = CYLINDRICAL_SURFACE ( 'NONE', #57, 0.7679999999999992388 ) ;
#134 = DIRECTION ( 'NONE',  ( -3.491481338843133355E-15, 1.224646799147353207E-16, -1.000000000000000000 ) ) ;
#135 = CARTESIAN_POINT ( 'NONE',  ( 0.0000000000000000000, 0.0000000000000000000, 0.0000000000000000000 ) ) ;
#136 = DIRECTION ( 'NONE',  ( 0.0000000000000000000, -1.000000000000000000, 0.0000000000000000000 ) ) ;
#137 = FACE_OUTER_BOUND ( 'NONE', #288, .T. ) ;
#138 = CARTESIAN_POINT ( 'NONE',  ( 2.094888803305880013E-14, 5.759077565421519557E-33, 6.000000000000000000 ) ) ;
#139 = CARTESIAN_POINT ( 'NONE',  ( 2.094888803305880013E-14, 5.759077565421519557E-33, 6.000000000000000000 ) ) ;
#140 = DIRECTION ( 'NONE',  ( 0.0000000000000000000, 1.000000000000000000, 0.0000000000000000000 ) ) ;
#141 = CALENDAR_DATE ( 2021, 17, 12 ) ;
#142 = VERTEX_POINT ( 'NONE', #237 ) ;
#143 = PRODUCT_DEFINITION_FORMATION_WITH_SPECIFIED_SOURCE ( 'ANY', '', #11, .NOT_KNOWN. ) ;
#144 = VERTEX_POINT ( 'NONE', #214 ) ;
#145 = ORIENTED_EDGE ( 'NONE', *, *, #67, .F. ) ;
#146 = EDGE_CURVE ( 'NONE', #144, #144, #64, .T. ) ;
#147 = CONICAL_SURFACE ( 'NONE', #231, 0.7999999999999996003, 0.7853981633974507215 ) ;
#148 = ORIENTED_EDGE ( 'NONE', *, *, #177, .T. ) ;
#149 = EDGE_LOOP ( 'NONE', ( #106 ) ) ;
#150 = APPROVAL ( #223, 'UNSPECIFIED' ) ;
#151 = CALENDAR_DATE ( 2021, 17, 12 ) ;
#152 = AXIS2_PLACEMENT_3D ( 'NONE', #24, #134, #73 ) ;
#153 = CALENDAR_DATE ( 2021, 17, 12 ) ;
#154 = EDGE_CURVE ( 'NONE', #165, #165, #300, .T. ) ;
#155 = FACE_OUTER_BOUND ( 'NONE', #217, .T. ) ;
#156 = CONICAL_SURFACE ( 'NONE', #5, 0.9999999999999958922, 0.2617993877991421359 ) ;
#157 = CARTESIAN_POINT ( 'NONE',  ( 0.0000000000000000000, 0.0000000000000000000, 0.0000000000000000000 ) ) ;
#158 = DIRECTION ( 'NONE',  ( -5.015442563508433415E-31, -1.000000000000000000, -1.411721578757169122E-16 ) ) ;
#159 = CYLINDRICAL_SURFACE ( 'NONE', #119, 0.7679999999999995719 ) ;
#160 = CARTESIAN_POINT ( 'NONE',  ( 6.313663087721761779E-16, -2.214534903925670875E-17, 0.1808304978600782098 ) ) ;
#161 = DIRECTION ( 'NONE',  ( -3.491481338843133355E-15, 1.224646799147353207E-16, -1.000000000000000000 ) ) ;
#162 = FACE_OUTER_BOUND ( 'NONE', #105, .T. ) ;
#163 = DIRECTION ( 'NONE',  ( 4.275831445896958607E-31, 1.000000000000000000, 1.224646799147353207E-16 ) ) ;
#164 = DATE_AND_TIME ( #189, #278 ) ;
#165 = VERTEX_POINT ( 'NONE', #27 ) ;
#166 = AXIS2_PLACEMENT_3D ( 'NONE', #229, #187, #44 ) ;
#167 = CARTESIAN_POINT ( 'NONE',  ( 1.319779946082704535E-13, 0.9999999999999947820, 37.79999999999999716 ) ) ;
#168 = EDGE_CURVE ( 'NONE', #120, #120, #201, .T. ) ;
#169 = EDGE_LOOP ( 'NONE', ( #61 ) ) ;
#170 = CONICAL_SURFACE ( 'NONE', #232, 0.7679999999999989058, 0.1919862177193690511 ) ;
#171 = ORIENTED_EDGE ( 'NONE', *, *, #67, .T. ) ;
#172 = ORIENTED_EDGE ( 'NONE', *, *, #168, .T. ) ;
#173 = CC_DESIGN_DATE_AND_TIME_ASSIGNMENT ( #293, #107, ( #175 ) ) ;
#174 = DATE_TIME_ROLE ( 'creation_date' ) ;
#175 = SECURITY_CLASSIFICATION ( '', '', #131 ) ;
#176 = COORDINATED_UNIVERSAL_TIME_OFFSET ( 1, 0, .AHEAD. ) ;
#177 = EDGE_CURVE ( 'NONE', #244, #244, #207, .T. ) ;
#178 = DIRECTION ( 'NONE',  ( -3.491481338843133355E-15, 1.224646799147353207E-16, -1.000000000000000000 ) ) ;
#179 = PERSON ( 'UNSPECIFIED', 'UNSPECIFIED', 'UNSPECIFIED', ('UNSPECIFIED'), ('UNSPECIFIED'), ('UNSPECIFIED') ) ;
#180 = FACE_OUTER_BOUND ( 'NONE', #183, .T. ) ;
#181 = CARTESIAN_POINT ( 'NONE',  ( 2.513866563967056016E-14, -8.817456953860942303E-16, 7.200000000000000178 ) ) ;
#182 =( GEOMETRIC_REPRESENTATION_CONTEXT ( 3 ) GLOBAL_UNCERTAINTY_ASSIGNED_CONTEXT ( ( #59 ) ) GLOBAL_UNIT_ASSIGNED_CONTEXT ( ( #125, #284, #52 ) ) REPRESENTATION_CONTEXT ( 'NONE', 'WORKASPACE' ) );
#183 = EDGE_LOOP ( 'NONE', ( #148 ) ) ;
#184 = CARTESIAN_POINT ( 'NONE',  ( 0.0000000000000000000, 0.0000000000000000000, 0.0000000000000000000 ) ) ;
#185 = APPROVAL ( #213, 'UNSPECIFIED' ) ;
#186 = CARTESIAN_POINT ( 'NONE',  ( 2.908103961080348460E-14, -1.020025559897399313E-15, 8.329140782530773279 ) ) ;
#187 = DIRECTION ( 'NONE',  ( -3.491481338843133355E-15, 1.224646799147353207E-16, -1.000000000000000000 ) ) ;
#188 = FACE_BOUND ( 'NONE', #169, .T. ) ;
#189 = CALENDAR_DATE ( 2021, 17, 12 ) ;
#190 = VERTEX_POINT ( 'NONE', #242 ) ;
#191 = DATE_AND_TIME ( #141, #65 ) ;
#192 = AXIS2_PLACEMENT_3D ( 'NONE', #112, #281, #256 ) ;
#193 = APPROVAL_ROLE ( '' ) ;
#194 = EDGE_LOOP ( 'NONE', ( #126 ) ) ;
#195 = EDGE_LOOP ( 'NONE', ( #12 ) ) ;
#196 = AXIS2_PLACEMENT_3D ( 'NONE', #47, #117, #163 ) ;
#197 = EDGE_LOOP ( 'NONE', ( #172 ) ) ;
#198 = APPROVAL_ROLE ( '' ) ;
#199 = PERSON_AND_ORGANIZATION ( #179, #84 ) ;
#200 = ADVANCED_FACE ( 'NONE', ( #208, #279 ), #147, .T. ) ;
#201 = CIRCLE ( 'NONE', #1, 0.9999999999999993339 ) ;
#202 = FACE_OUTER_BOUND ( 'NONE', #194, .T. ) ;
#203 = CARTESIAN_POINT ( 'NONE',  ( -2.002594961329807859E-32, 7.024157574887019788E-34, -5.735659930502012642E-18 ) ) ;
#204 = FACE_OUTER_BOUND ( 'NONE', #266, .T. ) ;
#205 = DIRECTION ( 'NONE',  ( 3.491481338843133355E-15, -1.224646799147353207E-16, 1.000000000000000000 ) ) ;
#206 = CC_DESIGN_DATE_AND_TIME_ASSIGNMENT ( #164, #174, ( #262 ) ) ;
#207 = CIRCLE ( 'NONE', #152, 0.7679999999999995719 ) ;
#208 = FACE_OUTER_BOUND ( 'NONE', #247, .T. ) ;
#209 = CYLINDRICAL_SURFACE ( 'NONE', #26, 0.9999999999999976685 ) ;
#210 = EDGE_CURVE ( 'NONE', #190, #190, #290, .T. ) ;
#211 = DIRECTION ( 'NONE',  ( 3.491481338843133355E-15, -1.224646799147353207E-16, 1.000000000000000000 ) ) ;
#212 = CIRCLE ( 'NONE', #79, 0.9999999999999958922 ) ;
#213 = APPROVAL_STATUS ( 'not_yet_approved' ) ;
#214 = CARTESIAN_POINT ( 'NONE',  ( 6.313663087721764737E-16, 0.6282076098516272689, 0.1808304978600782931 ) ) ;
#215 = VERTEX_POINT ( 'NONE', #9 ) ;
#216 = APPROVAL_PERSON_ORGANIZATION ( #60, #150, #198 ) ;
#217 = EDGE_LOOP ( 'NONE', ( #33 ) ) ;
#218 = ORIENTED_EDGE ( 'NONE', *, *, #287, .F. ) ;
#219 = ORIENTED_EDGE ( 'NONE', *, *, #168, .F. ) ;
#220 = APPROVAL_DATE_TIME ( #271, #292 ) ;
#221 = CLOSED_SHELL ( 'NONE', ( #267, #17, #39, #51, #104, #200, #15 ) ) ;
#222 = CIRCLE ( 'NONE', #192, 0.8361483474218599499 ) ;
#223 = APPROVAL_STATUS ( 'not_yet_approved' ) ;
#224 = AXIS2_PLACEMENT_3D ( 'NONE', #296, #178, #110 ) ;
#225 = DIRECTION ( 'NONE',  ( -3.491481338843133355E-15, 1.224646799147353207E-16, -1.000000000000000000 ) ) ;
#226 = APPLICATION_CONTEXT ( 'configuration controlled 3d designs of mechanical parts and assemblies' ) ;
#227 = PLANE ( 'NONE',  #282 ) ;
#228 = CC_DESIGN_PERSON_AND_ORGANIZATION_ASSIGNMENT ( #25, #263, ( #262 ) ) ;
#229 = CARTESIAN_POINT ( 'NONE',  ( 3.142333204958819625E-15, -1.102182119232617788E-16, 0.8999999999999999112 ) ) ;
#230 = DIRECTION ( 'NONE',  ( -4.275831445896958607E-31, -1.000000000000000000, -1.224646799147353207E-16 ) ) ;
#231 = AXIS2_PLACEMENT_3D ( 'NONE', #72, #69, #299 ) ;
#232 = AXIS2_PLACEMENT_3D ( 'NONE', #283, #205, #158 ) ;
#233 = PLANE ( 'NONE',  #109 ) ;
#234 = MANIFOLD_SOLID_BREP ( 'Corps-Déplacer/Copier1[2]', #129 ) ;
#235 = ADVANCED_FACE ( 'NONE', ( #114 ), #233, .T. ) ;
#236 = DIRECTION ( 'NONE',  ( -3.491481338843133355E-15, 1.224646799147353207E-16, -1.000000000000000000 ) ) ;
#237 = CARTESIAN_POINT ( 'NONE',  ( 9.463679131915805687E-32, 0.3150000000000000577, 2.710505431213761085E-17 ) ) ;
#238 = CC_DESIGN_APPROVAL ( #185, ( #262 ) ) ;
#239 = CARTESIAN_POINT ( 'NONE',  ( 2.094888803305880013E-14, 0.7679999999999987947, 6.000000000000000000 ) ) ;
#240 = APPLICATION_PROTOCOL_DEFINITION ( 'international standard', 'config_control_design', 1994, #63 ) ;
#241 = ADVANCED_FACE ( 'NONE', ( #188, #23 ), #37, .T. ) ;
#242 = CARTESIAN_POINT ( 'NONE',  ( 3.142333204958820020E-15, 0.7679999999999987947, 0.9000000000000000222 ) ) ;
#243 = ORIENTED_EDGE ( 'NONE', *, *, #295, .F. ) ;
#244 = VERTEX_POINT ( 'NONE', #53 ) ;
#245 = ORIENTED_EDGE ( 'NONE', *, *, #177, .F. ) ;
#246 = EDGE_CURVE ( 'NONE', #142, #142, #41, .T. ) ;
#247 = EDGE_LOOP ( 'NONE', ( #219 ) ) ;
#248 = APPROVAL_STATUS ( 'not_yet_approved' ) ;
#249 = EDGE_LOOP ( 'NONE', ( #245 ) ) ;
#250 = TOROIDAL_SURFACE ( 'NONE', #224, 2.767999999999999794, 2.000000000000000000 ) ;
#251 = CIRCLE ( 'NONE', #268, 0.7679999999999995719 ) ;
#252 = DIRECTION ( 'NONE',  ( -3.491481338843133355E-15, 1.224646799147353207E-16, -1.000000000000000000 ) ) ;
#253 = DIRECTION ( 'NONE',  ( -3.491481338843133355E-15, 1.224646799147353207E-16, -1.000000000000000000 ) ) ;
#254 = DIRECTION ( 'NONE',  ( 4.275831445896958607E-31, 1.000000000000000000, 1.224646799147353207E-16 ) ) ;
#255 = DIRECTION ( 'NONE',  ( -4.598630884562454131E-31, -1.000000000000000000, -1.294399521133120177E-16 ) ) ;
#256 = DIRECTION ( 'NONE',  ( 0.0000000000000000000, 1.000000000000000000, 0.0000000000000000000 ) ) ;
#257 = CC_DESIGN_APPROVAL ( #150, ( #175 ) ) ;
#258 = DIRECTION ( 'NONE',  ( -3.491481338843133355E-15, 1.224646799147353207E-16, -1.000000000000000000 ) ) ;
#259 = PERSON_AND_ORGANIZATION ( #179, #84 ) ;
#260 = DIRECTION ( 'NONE',  ( 0.0000000000000000000, 1.000000000000000000, 0.0000000000000000000 ) ) ;
#261 = AXIS2_PLACEMENT_3D ( 'NONE', #181, #258, #140 ) ;
#262 = PRODUCT_DEFINITION ( 'UNKNOWN', '', #143, #289 ) ;
#263 = PERSON_AND_ORGANIZATION_ROLE ( 'creator' ) ;
#264 = ORIENTED_EDGE ( 'NONE', *, *, #154, .F. ) ;
#265 = DIRECTION ( 'NONE',  ( -3.491481338843133355E-15, 1.224646799147353207E-16, -1.000000000000000000 ) ) ;
#266 = EDGE_LOOP ( 'NONE', ( #264 ) ) ;
#267 = ADVANCED_FACE ( 'NONE', ( #42 ), #227, .F. ) ;
#268 = AXIS2_PLACEMENT_3D ( 'NONE', #7, #2, #260 ) ;
#269 = EDGE_LOOP ( 'NONE', ( #81 ) ) ;
#270 = ORIENTED_EDGE ( 'NONE', *, *, #95, .T. ) ;
#271 = DATE_AND_TIME ( #153, #54 ) ;
#272 = PERSON_AND_ORGANIZATION_ROLE ( 'classification_officer' ) ;
#273 = AXIS2_PLACEMENT_3D ( 'NONE', #48, #161, #118 ) ;
#274 = APPROVAL_DATE_TIME ( #16, #150 ) ;
#275 = ORIENTED_EDGE ( 'NONE', *, *, #246, .T. ) ;
#276 = DIRECTION ( 'NONE',  ( -3.491481338843133355E-15, 1.224646799147353207E-16, -1.000000000000000000 ) ) ;
#277 = DIRECTION ( 'NONE',  ( -3.491481338843133355E-15, 1.224646799147353207E-16, -1.000000000000000000 ) ) ;
#278 = LOCAL_TIME ( 11, 59, 31.00000000000000000, #99 ) ;
#279 = FACE_BOUND ( 'NONE', #103, .T. ) ;
#280 = CARTESIAN_POINT ( 'NONE',  ( 1.319779946082704535E-13, -4.629164900776995227E-15, 37.79999999999999716 ) ) ;
#281 = DIRECTION ( 'NONE',  ( -3.491481338843133355E-15, 1.224646799147353207E-16, -1.000000000000000000 ) ) ;
#282 = AXIS2_PLACEMENT_3D ( 'NONE', #138, #302, #230 ) ;
#283 = CARTESIAN_POINT ( 'NONE',  ( 3.142333204958819625E-15, -1.102182119232617788E-16, 0.8999999999999999112 ) ) ;
#284 =( NAMED_UNIT ( * ) PLANE_ANGLE_UNIT ( ) SI_UNIT ( $, .RADIAN. ) );
#285 = CARTESIAN_POINT ( 'NONE',  ( 0.0000000000000000000, 0.0000000000000000000, 0.0000000000000000000 ) ) ;
#286 = APPROVAL_DATE_TIME ( #191, #185 ) ;
#287 = EDGE_CURVE ( 'NONE', #80, #80, #212, .T. ) ;
#288 = EDGE_LOOP ( 'NONE', ( #171 ) ) ;
#289 = DESIGN_CONTEXT ( 'detailed design', #226, 'design' ) ;
#290 = CIRCLE ( 'NONE', #166, 0.7679999999999989058 ) ;
#291 = PERSON_AND_ORGANIZATION_ROLE ( 'design_supplier' ) ;
#292 = APPROVAL ( #248, 'UNSPECIFIED' ) ;
#293 = DATE_AND_TIME ( #38, #49 ) ;
#294 = CC_DESIGN_SECURITY_CLASSIFICATION ( #175, ( #143 ) ) ;
#295 = EDGE_CURVE ( 'NONE', #3, #3, #251, .T. ) ;
#296 = CARTESIAN_POINT ( 'NONE',  ( 2.513866563967056016E-14, -8.673617379884035472E-16, 7.200000000000000178 ) ) ;
#297 = DIRECTION ( 'NONE',  ( -4.275831445896958607E-31, -1.000000000000000000, -1.224646799147353207E-16 ) ) ;
#298 = ORIENTED_EDGE ( 'NONE', *, *, #146, .T. ) ;
#299 = DIRECTION ( 'NONE',  ( 0.0000000000000000000, 1.000000000000000000, 0.0000000000000000000 ) ) ;
#300 = CIRCLE ( 'NONE', #261, 0.7679999999999996829 ) ;
#301 = DIRECTION ( 'NONE',  ( -4.275831445896958607E-31, -1.000000000000000000, -1.224646799147353207E-16 ) ) ;
#302 = DIRECTION ( 'NONE',  ( 3.491481338843133355E-15, -1.224646799147353207E-16, 1.000000000000000000 ) ) ;
#303 = FACE_BOUND ( 'NONE', #58, .T. ) ;
ENDSEC;
END-ISO-10303-21;
