ISO-10303-21;
HEADER;
FILE_DESCRIPTION (( 'STEP AP203' ),
    '1' );
FILE_NAME ('971471.step',
    '2021-12-01T14:04:27',
    ( '' ),
    ( '' ),
    'SwSTEP 2.0',
    'SolidWorks 2019',
    '' );
FILE_SCHEMA (( 'CONFIG_CONTROL_DESIGN' ));
ENDSEC;

DATA;
#1 = AXIS2_PLACEMENT_3D ( 'NONE', #204, #275, #155 ) ;
#2 = APPROVAL_PERSON_ORGANIZATION ( #62, #163, #138 ) ;
#3 = APPROVAL_DATE_TIME ( #88, #163 ) ;
#4 = CARTESIAN_POINT ( 'NONE',  ( 0.0000000000000000000, 0.0000000000000000000, 0.0000000000000000000 ) ) ;
#5 = FACE_OUTER_BOUND ( 'NONE', #77, .T. ) ;
#6 =( GEOMETRIC_REPRESENTATION_CONTEXT ( 3 ) GLOBAL_UNCERTAINTY_ASSIGNED_CONTEXT ( ( #303 ) ) GLOBAL_UNIT_ASSIGNED_CONTEXT ( ( #250, #179, #151 ) ) REPRESENTATION_CONTEXT ( 'NONE', 'WORKASPACE' ) );
#7 = PLANE ( 'NONE',  #207 ) ;
#8 = DIRECTION ( 'NONE',  ( -3.491481338843133355E-15, 1.224646799147353207E-16, -1.000000000000000000 ) ) ;
#9 = PLANE ( 'NONE',  #103 ) ;
#10 = AXIS2_PLACEMENT_3D ( 'NONE', #209, #231, #131 ) ;
#11 = ORIENTED_EDGE ( 'NONE', *, *, #184, .F. ) ;
#12 = VERTEX_POINT ( 'NONE', #145 ) ;
#13 = COORDINATED_UNIVERSAL_TIME_OFFSET ( 1, 0, .AHEAD. ) ;
#14 = DIRECTION ( 'NONE',  ( 4.275831445896959482E-31, 1.000000000000000000, 1.224646799147353454E-16 ) ) ;
#15 = APPROVAL_STATUS ( 'not_yet_approved' ) ;
#16 = DIRECTION ( 'NONE',  ( 0.0000000000000000000, 1.000000000000000000, 0.0000000000000000000 ) ) ;
#17 = VERTEX_POINT ( 'NONE', #271 ) ;
#18 = FACE_OUTER_BOUND ( 'NONE', #178, .T. ) ;
#19 = AXIS2_PLACEMENT_3D ( 'NONE', #267, #46, #119 ) ;
#20 = EDGE_LOOP ( 'NONE', ( #129 ) ) ;
#21 = CYLINDRICAL_SURFACE ( 'NONE', #10, 0.8149999999999942846 ) ;
#22 = EDGE_CURVE ( 'NONE', #73, #73, #266, .T. ) ;
#23 = DIRECTION ( 'NONE',  ( 3.491481338843133355E-15, -1.224646799147353207E-16, 1.000000000000000000 ) ) ;
#24 = DIRECTION ( 'NONE',  ( -4.209682938551339926E-31, -1.000000000000000000, -1.184920407087984319E-16 ) ) ;
#25 = CIRCLE ( 'NONE', #90, 0.9150000000000000355 ) ;
#26 = DIRECTION ( 'NONE',  ( -4.275831445896958607E-31, -1.000000000000000000, -1.224646799147353207E-16 ) ) ;
#27 = CARTESIAN_POINT ( 'NONE',  ( 1.745740669421566678E-13, 1.199999999999995515, 50.00000000000000000 ) ) ;
#28 = EDGE_LOOP ( 'NONE', ( #164 ) ) ;
#29 = APPROVAL ( #15, 'UNSPECIFIED' ) ;
#30 = FACE_OUTER_BOUND ( 'NONE', #173, .T. ) ;
#31 = AXIS2_PLACEMENT_3D ( 'NONE', #286, #121, #143 ) ;
#32 = EDGE_LOOP ( 'NONE', ( #175 ) ) ;
#33 = DATE_AND_TIME ( #76, #236 ) ;
#34 = PERSON_AND_ORGANIZATION ( #221, #200 ) ;
#35 = ORIENTED_EDGE ( 'NONE', *, *, #162, .T. ) ;
#36 = CLOSED_SHELL ( 'NONE', ( #67, #78, #48, #80, #259, #115, #99, #156 ) ) ;
#37 = PERSON_AND_ORGANIZATION ( #221, #200 ) ;
#38 = FACE_BOUND ( 'NONE', #89, .T. ) ;
#39 = CARTESIAN_POINT ( 'NONE',  ( 6.056776150402963091E-14, 0.8453844939755733590, 17.34729635533384595 ) ) ;
#40 = FACE_OUTER_BOUND ( 'NONE', #220, .T. ) ;
#41 = CLOSED_SHELL ( 'NONE', ( #193, #159, #53, #141 ) ) ;
#42 = SECURITY_CLASSIFICATION_LEVEL ( 'unclassified' ) ;
#43 = APPROVAL_PERSON_ORGANIZATION ( #232, #29, #276 ) ;
#44 = FACE_OUTER_BOUND ( 'NONE', #176, .T. ) ;
#45 = DIRECTION ( 'NONE',  ( -3.491481338843133355E-15, 1.224646799147353207E-16, -1.000000000000000000 ) ) ;
#46 = DIRECTION ( 'NONE',  ( -3.491481338843133355E-15, 1.224646799147353207E-16, -1.000000000000000000 ) ) ;
#47 = DIRECTION ( 'NONE',  ( 4.209682938551339926E-31, 1.000000000000000000, 1.184920407087984319E-16 ) ) ;
#48 = ADVANCED_FACE ( 'NONE', ( #85, #214 ), #21, .T. ) ;
#49 = CARTESIAN_POINT ( 'NONE',  ( 2.793185071074506684E-14, 6.861401005677984324E-33, 8.000000000000000000 ) ) ;
#50 = ORIENTED_EDGE ( 'NONE', *, *, #189, .T. ) ;
#51 = CC_DESIGN_PERSON_AND_ORGANIZATION_ASSIGNMENT ( #269, #154, ( #177 ) ) ;
#52 = PRODUCT ( '971471', '971471', '', ( #102 ) ) ;
#53 = ADVANCED_FACE ( 'NONE', ( #112, #255 ), #281, .T. ) ;
#54 = EDGE_LOOP ( 'NONE', ( #208 ) ) ;
#55 = APPLICATION_CONTEXT ( 'configuration controlled 3d designs of mechanical parts and assemblies' ) ;
#56 = CALENDAR_DATE ( 2021, 1, 12 ) ;
#57 = EDGE_LOOP ( 'NONE', ( #153 ) ) ;
#58 = CIRCLE ( 'NONE', #64, 0.9149999999999990363 ) ;
#59 = PERSON_AND_ORGANIZATION_ROLE ( 'design_owner' ) ;
#60 = ORIENTED_EDGE ( 'NONE', *, *, #203, .T. ) ;
#61 = DIRECTION ( 'NONE',  ( 4.275831445896957731E-31, 1.000000000000000000, 1.224646799147353207E-16 ) ) ;
#62 = PERSON_AND_ORGANIZATION ( #221, #200 ) ;
#63 = EDGE_LOOP ( 'NONE', ( #258 ) ) ;
#64 = AXIS2_PLACEMENT_3D ( 'NONE', #120, #191, #47 ) ;
#65 = APPROVAL_PERSON_ORGANIZATION ( #84, #169, #297 ) ;
#66 = PERSON_AND_ORGANIZATION ( #221, #200 ) ;
#67 = ADVANCED_FACE ( 'NONE', ( #40 ), #256, .F. ) ;
#68 = EDGE_CURVE ( 'NONE', #12, #12, #282, .T. ) ;
#69 = AXIS2_PLACEMENT_3D ( 'NONE', #168, #197, #243 ) ;
#70 = CARTESIAN_POINT ( 'NONE',  ( 1.745740669421566678E-13, -6.123233995736766085E-15, 50.00000000000000000 ) ) ;
#71 = CARTESIAN_POINT ( 'NONE',  ( 1.745740669421566678E-13, 8.998558695971067645E-33, 50.00000000000000000 ) ) ;
#72 = CARTESIAN_POINT ( 'NONE',  ( 2.793185071074506684E-14, -9.797174393178825657E-16, 8.000000000000000000 ) ) ;
#73 = VERTEX_POINT ( 'NONE', #172 ) ;
#74 = SECURITY_CLASSIFICATION ( '', '', #42 ) ;
#75 = DIRECTION ( 'NONE',  ( -3.491481338843133355E-15, 1.224646799147353207E-16, -1.000000000000000000 ) ) ;
#76 = CALENDAR_DATE ( 2021, 1, 12 ) ;
#77 = EDGE_LOOP ( 'NONE', ( #296 ) ) ;
#78 = ADVANCED_FACE ( 'NONE', ( #182, #38 ), #187, .T. ) ;
#79 = COORDINATED_UNIVERSAL_TIME_OFFSET ( 1, 0, .AHEAD. ) ;
#80 = ADVANCED_FACE ( 'NONE', ( #108, #18 ), #257, .F. ) ;
#81 = APPLICATION_PROTOCOL_DEFINITION ( 'international standard', 'config_control_design', 1994, #227 ) ;
#82 = VERTEX_POINT ( 'NONE', #39 ) ;
#83 = EDGE_LOOP ( 'NONE', ( #158 ) ) ;
#84 = PERSON_AND_ORGANIZATION ( #221, #200 ) ;
#85 = FACE_OUTER_BOUND ( 'NONE', #63, .T. ) ;
#86 = AXIS2_PLACEMENT_3D ( 'NONE', #219, #140, #268 ) ;
#87 = CARTESIAN_POINT ( 'NONE',  ( 7.352991746120916832E-14, -2.579082324131093051E-15, 21.05980537349013915 ) ) ;
#88 = DATE_AND_TIME ( #283, #201 ) ;
#89 = EDGE_LOOP ( 'NONE', ( #35 ) ) ;
#90 = AXIS2_PLACEMENT_3D ( 'NONE', #170, #97, #263 ) ;
#91 = DESIGN_CONTEXT ( 'detailed design', #55, 'design' ) ;
#92 = COORDINATED_UNIVERSAL_TIME_OFFSET ( 1, 0, .AHEAD. ) ;
#93 = EDGE_LOOP ( 'NONE', ( #144 ) ) ;
#94 = CONICAL_SURFACE ( 'NONE', #239, 1.499999999999996669, 0.1745329251994262587 ) ;
#95 = LOCAL_TIME ( 15, 4, 27.00000000000000000, #186 ) ;
#96 = CARTESIAN_POINT ( 'NONE',  ( -1.647611331960601535E-31, 5.779042612878510197E-33, -4.718946407161726015E-17 ) ) ;
#97 = DIRECTION ( 'NONE',  ( -3.491481338843133355E-15, 1.224646799147353207E-16, -1.000000000000000000 ) ) ;
#98 = DIRECTION ( 'NONE',  ( 0.0000000000000000000, 1.000000000000000000, 0.0000000000000000000 ) ) ;
#99 = ADVANCED_FACE ( 'NONE', ( #298, #160 ), #142, .T. ) ;
#100 = DIRECTION ( 'NONE',  ( 3.491481338843133355E-15, -1.224646799147353207E-16, 1.000000000000000000 ) ) ;
#101 = VERTEX_POINT ( 'NONE', #106 ) ;
#102 = MECHANICAL_CONTEXT ( 'NONE', #227, 'mechanical' ) ;
#103 = AXIS2_PLACEMENT_3D ( 'NONE', #49, #23, #139 ) ;
#104 = DATE_TIME_ROLE ( 'creation_date' ) ;
#105 = EDGE_LOOP ( 'NONE', ( #273 ) ) ;
#106 = CARTESIAN_POINT ( 'NONE',  ( 1.735266225405037467E-13, 1.499999999999995559, 49.70000000000000284 ) ) ;
#107 = PRODUCT_DEFINITION ( 'UNKNOWN', '', #177, #91 ) ;
#108 = FACE_OUTER_BOUND ( 'NONE', #205, .T. ) ;
#109 = DIRECTION ( 'NONE',  ( -3.491481338843133355E-15, 1.224646799147353207E-16, -1.000000000000000000 ) ) ;
#110 = AXIS2_PLACEMENT_3D ( 'NONE', #233, #134, #16 ) ;
#111 = EDGE_LOOP ( 'NONE', ( #60 ) ) ;
#112 = FACE_OUTER_BOUND ( 'NONE', #83, .T. ) ;
#113 = AXIS2_PLACEMENT_3D ( 'NONE', #287, #100, #24 ) ;
#114 = DATE_AND_TIME ( #280, #95 ) ;
#115 = ADVANCED_FACE ( 'NONE', ( #5, #192 ), #174, .T. ) ;
#116 = CC_DESIGN_PERSON_AND_ORGANIZATION_ASSIGNMENT ( #34, #229, ( #107 ) ) ;
#117 = PLANE ( 'NONE',  #196 ) ;
#118 = CIRCLE ( 'NONE', #123, 1.200000000000001732 ) ;
#119 = DIRECTION ( 'NONE',  ( 0.0000000000000000000, 1.000000000000000000, 0.0000000000000000000 ) ) ;
#120 = CARTESIAN_POINT ( 'NONE',  ( 8.728703347107829444E-16, -3.061616997868381785E-17, 0.2499999999999998890 ) ) ;
#121 = DIRECTION ( 'NONE',  ( -3.491481338843133355E-15, 1.224646799147353207E-16, -1.000000000000000000 ) ) ;
#122 = FACE_OUTER_BOUND ( 'NONE', #32, .T. ) ;
#123 = AXIS2_PLACEMENT_3D ( 'NONE', #70, #284, #290 ) ;
#124 = CARTESIAN_POINT ( 'NONE',  ( 5.935518276033326704E-14, 0.8149999999999928413, 17.00000000000000000 ) ) ;
#125 = EDGE_CURVE ( 'NONE', #244, #244, #118, .T. ) ;
#126 = EDGE_CURVE ( 'NONE', #101, #101, #128, .T. ) ;
#127 = VERTEX_POINT ( 'NONE', #124 ) ;
#128 = CIRCLE ( 'NONE', #86, 1.500000000000001554 ) ;
#129 = ORIENTED_EDGE ( 'NONE', *, *, #132, .F. ) ;
#130 = CARTESIAN_POINT ( 'NONE',  ( 0.0000000000000000000, 0.0000000000000000000, 0.0000000000000000000 ) ) ;
#131 = DIRECTION ( 'NONE',  ( 4.275831445896958607E-31, 1.000000000000000000, 1.224646799147353454E-16 ) ) ;
#132 = EDGE_CURVE ( 'NONE', #82, #82, #293, .T. ) ;
#133 = CARTESIAN_POINT ( 'NONE',  ( 8.728703347107833388E-16, 0.9149999999999990363, 0.2500000000000000000 ) ) ;
#134 = DIRECTION ( 'NONE',  ( -3.491481338843133355E-15, 1.224646799147353207E-16, -1.000000000000000000 ) ) ;
#135 = CARTESIAN_POINT ( 'NONE',  ( 1.745740669421566678E-13, -6.123233995736766085E-15, 50.00000000000000000 ) ) ;
#136 = CIRCLE ( 'NONE', #19, 0.8149999999999948397 ) ;
#137 = CARTESIAN_POINT ( 'NONE',  ( -3.295222663921203069E-31, 1.155808522575702039E-32, -9.437892814323452029E-17 ) ) ;
#138 = APPROVAL_ROLE ( '' ) ;
#139 = DIRECTION ( 'NONE',  ( -4.275831445896958607E-31, -1.000000000000000000, -1.224646799147353207E-16 ) ) ;
#140 = DIRECTION ( 'NONE',  ( -3.491481338843133355E-15, 1.224646799147353207E-16, -1.000000000000000000 ) ) ;
#141 = ADVANCED_FACE ( 'NONE', ( #44 ), #9, .T. ) ;
#142 = CONICAL_SURFACE ( 'NONE', #285, 1.200000000000001732, 0.7853981633974453924 ) ;
#143 = DIRECTION ( 'NONE',  ( 0.0000000000000000000, 1.000000000000000000, 0.0000000000000000000 ) ) ;
#144 = ORIENTED_EDGE ( 'NONE', *, *, #125, .T. ) ;
#145 = CARTESIAN_POINT ( 'NONE',  ( 7.352991746120916832E-14, 1.499999999999994005, 21.05980537349013915 ) ) ;
#146 = PRODUCT_DEFINITION_SHAPE ( 'NONE', 'NONE',  #107 ) ;
#147 = DIRECTION ( 'NONE',  ( -3.491481338843133355E-15, 1.224646799147353207E-16, -1.000000000000000000 ) ) ;
#148 = VERTEX_POINT ( 'NONE', #247 ) ;
#149 = CC_DESIGN_DATE_AND_TIME_ASSIGNMENT ( #114, #161, ( #74 ) ) ;
#150 = CIRCLE ( 'NONE', #289, 0.9150000000000000355 ) ;
#151 =( NAMED_UNIT ( * ) SI_UNIT ( $, .STERADIAN. ) SOLID_ANGLE_UNIT ( ) );
#152 = APPROVAL_DATE_TIME ( #157, #29 ) ;
#153 = ORIENTED_EDGE ( 'NONE', *, *, #225, .T. ) ;
#154 = PERSON_AND_ORGANIZATION_ROLE ( 'creator' ) ;
#155 = DIRECTION ( 'NONE',  ( -4.275831445896958607E-31, -1.000000000000000000, -1.224646799147353207E-16 ) ) ;
#156 = ADVANCED_FACE ( 'NONE', ( #122 ), #7, .F. ) ;
#157 = DATE_AND_TIME ( #292, #242 ) ;
#158 = ORIENTED_EDGE ( 'NONE', *, *, #225, .F. ) ;
#159 = ADVANCED_FACE ( 'NONE', ( #241, #167 ), #261, .T. ) ;
#160 = FACE_BOUND ( 'NONE', #93, .T. ) ;
#161 = DATE_TIME_ROLE ( 'classification_date' ) ;
#162 = EDGE_CURVE ( 'NONE', #148, #148, #165, .T. ) ;
#163 = APPROVAL ( #213, 'UNSPECIFIED' ) ;
#164 = ORIENTED_EDGE ( 'NONE', *, *, #184, .T. ) ;
#165 = CIRCLE ( 'NONE', #69, 0.8149999999999938405 ) ;
#166 = AXIS2_PLACEMENT_3D ( 'NONE', #87, #254, #279 ) ;
#167 = FACE_OUTER_BOUND ( 'NONE', #57, .T. ) ;
#168 = CARTESIAN_POINT ( 'NONE',  ( 2.853659301800060557E-14, -1.000928944092382267E-15, 8.173205080756900998 ) ) ;
#169 = APPROVAL ( #202, 'UNSPECIFIED' ) ;
#170 = CARTESIAN_POINT ( 'NONE',  ( 2.793185071074506684E-14, -9.797174393178825657E-16, 8.000000000000000000 ) ) ;
#171 = AXIS2_PLACEMENT_3D ( 'NONE', #277, #109, #61 ) ;
#172 = CARTESIAN_POINT ( 'NONE',  ( 0.0000000000000000000, 0.7706624327025947130, 0.0000000000000000000 ) ) ;
#173 = EDGE_LOOP ( 'NONE', ( #223 ) ) ;
#174 = CYLINDRICAL_SURFACE ( 'NONE', #228, 1.499999999999999112 ) ;
#175 = ORIENTED_EDGE ( 'NONE', *, *, #125, .F. ) ;
#176 = EDGE_LOOP ( 'NONE', ( #11 ) ) ;
#177 = PRODUCT_DEFINITION_FORMATION_WITH_SPECIFIED_SOURCE ( 'ANY', '', #52, .NOT_KNOWN. ) ;
#178 = EDGE_LOOP ( 'NONE', ( #180 ) ) ;
#179 =( NAMED_UNIT ( * ) PLANE_ANGLE_UNIT ( ) SI_UNIT ( $, .RADIAN. ) );
#180 = ORIENTED_EDGE ( 'NONE', *, *, #132, .T. ) ;
#181 = DIRECTION ( 'NONE',  ( 1.000000000000000000, 0.0000000000000000000, 0.0000000000000000000 ) ) ;
#182 = FACE_OUTER_BOUND ( 'NONE', #251, .T. ) ;
#183 = DIRECTION ( 'NONE',  ( 4.275831445896958607E-31, 1.000000000000000000, 1.224646799147353207E-16 ) ) ;
#184 = EDGE_CURVE ( 'NONE', #294, #294, #150, .T. ) ;
#185 = DIRECTION ( 'NONE',  ( -3.491481338843133355E-15, 1.224646799147353207E-16, -1.000000000000000000 ) ) ;
#186 = COORDINATED_UNIVERSAL_TIME_OFFSET ( 1, 0, .AHEAD. ) ;
#187 = CONICAL_SURFACE ( 'NONE', #110, 0.8149999999999938405, 0.5235987755982942637 ) ;
#188 = PRODUCT_RELATED_PRODUCT_CATEGORY ( 'detail', '', ( #52 ) ) ;
#189 = EDGE_CURVE ( 'NONE', #17, #17, #25, .T. ) ;
#190 = DIRECTION ( 'NONE',  ( -3.491481338843133355E-15, 1.224646799147353207E-16, -1.000000000000000000 ) ) ;
#191 = DIRECTION ( 'NONE',  ( -3.491481338843133355E-15, 1.224646799147353207E-16, -1.000000000000000000 ) ) ;
#192 = FACE_OUTER_BOUND ( 'NONE', #54, .T. ) ;
#193 = ADVANCED_FACE ( 'NONE', ( #264 ), #117, .F. ) ;
#194 = MANIFOLD_SOLID_BREP ( 'Corps-Déplacer/Copier1[1]', #36 ) ;
#195 = CARTESIAN_POINT ( 'NONE',  ( 0.0000000000000000000, 0.0000000000000000000, 0.0000000000000000000 ) ) ;
#196 = AXIS2_PLACEMENT_3D ( 'NONE', #96, #262, #26 ) ;
#197 = DIRECTION ( 'NONE',  ( -3.491481338843133355E-15, 1.224646799147353207E-16, -1.000000000000000000 ) ) ;
#198 = ORIENTED_EDGE ( 'NONE', *, *, #126, .F. ) ;
#199 = COORDINATED_UNIVERSAL_TIME_OFFSET ( 1, 0, .AHEAD. ) ;
#200 = ORGANIZATION ( 'UNSPECIFIED', 'UNSPECIFIED', '' ) ;
#201 = LOCAL_TIME ( 15, 4, 27.00000000000000000, #92 ) ;
#202 = APPROVAL_STATUS ( 'not_yet_approved' ) ;
#203 = EDGE_CURVE ( 'NONE', #127, #127, #136, .T. ) ;
#204 = CARTESIAN_POINT ( 'NONE',  ( 2.793185071074506684E-14, 6.861401005677984324E-33, 8.000000000000000000 ) ) ;
#205 = EDGE_LOOP ( 'NONE', ( #301 ) ) ;
#206 = PERSON_AND_ORGANIZATION_ROLE ( 'classification_officer' ) ;
#207 = AXIS2_PLACEMENT_3D ( 'NONE', #71, #147, #240 ) ;
#208 = ORIENTED_EDGE ( 'NONE', *, *, #126, .T. ) ;
#209 = CARTESIAN_POINT ( 'NONE',  ( 0.0000000000000000000, 0.0000000000000000000, 0.0000000000000000000 ) ) ;
#210 = SHAPE_DEFINITION_REPRESENTATION ( #146, #265 ) ;
#211 = CC_DESIGN_DATE_AND_TIME_ASSIGNMENT ( #291, #104, ( #107 ) ) ;
#212 = CC_DESIGN_PERSON_AND_ORGANIZATION_ASSIGNMENT ( #66, #206, ( #74 ) ) ;
#213 = APPROVAL_STATUS ( 'not_yet_approved' ) ;
#214 = FACE_OUTER_BOUND ( 'NONE', #111, .T. ) ;
#215 = DIRECTION ( 'NONE',  ( 4.275831445896958607E-31, 1.000000000000000000, 1.224646799147353454E-16 ) ) ;
#216 = AXIS2_PLACEMENT_3D ( 'NONE', #137, #185, #183 ) ;
#217 = DIRECTION ( 'NONE',  ( 0.0000000000000000000, 1.000000000000000000, 0.0000000000000000000 ) ) ;
#218 = DIRECTION ( 'NONE',  ( 3.491481338843133355E-15, -1.224646799147353207E-16, 1.000000000000000000 ) ) ;
#219 = CARTESIAN_POINT ( 'NONE',  ( 1.735266225405037467E-13, -6.086494591762345225E-15, 49.70000000000000284 ) ) ;
#220 = EDGE_LOOP ( 'NONE', ( #50 ) ) ;
#221 = PERSON ( 'UNSPECIFIED', 'UNSPECIFIED', 'UNSPECIFIED', ('UNSPECIFIED'), ('UNSPECIFIED'), ('UNSPECIFIED') ) ;
#222 = CARTESIAN_POINT ( 'NONE',  ( 7.352991746120916832E-14, -2.579082324131093051E-15, 21.05980537349013915 ) ) ;
#223 = ORIENTED_EDGE ( 'NONE', *, *, #68, .T. ) ;
#224 = DIRECTION ( 'NONE',  ( 0.0000000000000000000, 0.0000000000000000000, 1.000000000000000000 ) ) ;
#225 = EDGE_CURVE ( 'NONE', #226, #226, #58, .T. ) ;
#226 = VERTEX_POINT ( 'NONE', #133 ) ;
#227 = APPLICATION_CONTEXT ( 'configuration controlled 3d designs of mechanical parts and assemblies' ) ;
#228 = AXIS2_PLACEMENT_3D ( 'NONE', #195, #45, #215 ) ;
#229 = PERSON_AND_ORGANIZATION_ROLE ( 'creator' ) ;
#230 = CC_DESIGN_APPROVAL ( #169, ( #177 ) ) ;
#231 = DIRECTION ( 'NONE',  ( -3.491481338843133355E-15, 1.224646799147353207E-16, -1.000000000000000000 ) ) ;
#232 = PERSON_AND_ORGANIZATION ( #221, #200 ) ;
#233 = CARTESIAN_POINT ( 'NONE',  ( 2.853659301800060557E-14, -1.000928944092382267E-15, 8.173205080756900998 ) ) ;
#234 = EDGE_LOOP ( 'NONE', ( #198 ) ) ;
#235 = CC_DESIGN_APPROVAL ( #29, ( #107 ) ) ;
#236 = LOCAL_TIME ( 15, 4, 27.00000000000000000, #79 ) ;
#237 = ORIENTED_EDGE ( 'NONE', *, *, #22, .T. ) ;
#238 = EDGE_LOOP ( 'NONE', ( #237 ) ) ;
#239 = AXIS2_PLACEMENT_3D ( 'NONE', #222, #218, #288 ) ;
#240 = DIRECTION ( 'NONE',  ( 4.275831445896958607E-31, 1.000000000000000000, 1.224646799147353207E-16 ) ) ;
#241 = FACE_BOUND ( 'NONE', #105, .T. ) ;
#242 = LOCAL_TIME ( 15, 4, 27.00000000000000000, #199 ) ;
#243 = DIRECTION ( 'NONE',  ( 0.0000000000000000000, 1.000000000000000000, 0.0000000000000000000 ) ) ;
#244 = VERTEX_POINT ( 'NONE', #27 ) ;
#245 = FACE_BOUND ( 'NONE', #20, .T. ) ;
#246 = AXIS2_PLACEMENT_3D ( 'NONE', #130, #224, #181 ) ;
#247 = CARTESIAN_POINT ( 'NONE',  ( 2.853659301800060557E-14, 0.8149999999999928413, 8.173205080756900998 ) ) ;
#248 = PERSON_AND_ORGANIZATION ( #221, #200 ) ;
#249 = CC_DESIGN_PERSON_AND_ORGANIZATION_ASSIGNMENT ( #37, #252, ( #177 ) ) ;
#250 =( LENGTH_UNIT ( ) NAMED_UNIT ( * ) SI_UNIT ( .MILLI., .METRE. ) );
#251 = EDGE_LOOP ( 'NONE', ( #302 ) ) ;
#252 = PERSON_AND_ORGANIZATION_ROLE ( 'design_supplier' ) ;
#253 = CC_DESIGN_APPROVAL ( #163, ( #74 ) ) ;
#254 = DIRECTION ( 'NONE',  ( -3.491481338843133355E-15, 1.224646799147353207E-16, -1.000000000000000000 ) ) ;
#255 = FACE_OUTER_BOUND ( 'NONE', #28, .T. ) ;
#256 = PLANE ( 'NONE',  #1 ) ;
#257 = TOROIDAL_SURFACE ( 'NONE', #171, 2.814999999999995062, 2.000000000000000444 ) ;
#258 = ORIENTED_EDGE ( 'NONE', *, *, #162, .F. ) ;
#259 = ADVANCED_FACE ( 'NONE', ( #245, #30 ), #94, .T. ) ;
#260 = MANIFOLD_SOLID_BREP ( 'Corps-Déplacer/Copier1[2]', #41 ) ;
#261 = CONICAL_SURFACE ( 'NONE', #113, 0.9149999999999990363, 0.5235987755982923764 ) ;
#262 = DIRECTION ( 'NONE',  ( 3.491481338843133355E-15, -1.224646799147353207E-16, 1.000000000000000000 ) ) ;
#263 = DIRECTION ( 'NONE',  ( 0.0000000000000000000, 1.000000000000000000, 0.0000000000000000000 ) ) ;
#264 = FACE_OUTER_BOUND ( 'NONE', #238, .T. ) ;
#265 = ADVANCED_BREP_SHAPE_REPRESENTATION ( '971471', ( #194, #260, #246 ), #6 ) ;
#266 = CIRCLE ( 'NONE', #216, 0.7706624327025947130 ) ;
#267 = CARTESIAN_POINT ( 'NONE',  ( 5.935518276033326704E-14, -2.081899558550500280E-15, 17.00000000000000000 ) ) ;
#268 = DIRECTION ( 'NONE',  ( 0.0000000000000000000, 1.000000000000000000, 0.0000000000000000000 ) ) ;
#269 = PERSON_AND_ORGANIZATION ( #221, #200 ) ;
#270 = LOCAL_TIME ( 15, 4, 27.00000000000000000, #13 ) ;
#271 = CARTESIAN_POINT ( 'NONE',  ( 2.793185071074506684E-14, 0.9149999999999990363, 8.000000000000000000 ) ) ;
#272 = CARTESIAN_POINT ( 'NONE',  ( 2.793185071074506684E-14, 0.9149999999999990363, 8.000000000000000000 ) ) ;
#273 = ORIENTED_EDGE ( 'NONE', *, *, #22, .F. ) ;
#274 = APPLICATION_PROTOCOL_DEFINITION ( 'international standard', 'config_control_design', 1994, #55 ) ;
#275 = DIRECTION ( 'NONE',  ( 3.491481338843133355E-15, -1.224646799147353207E-16, 1.000000000000000000 ) ) ;
#276 = APPROVAL_ROLE ( '' ) ;
#277 = CARTESIAN_POINT ( 'NONE',  ( 5.935518276033326704E-14, -2.168404344971008868E-15, 17.00000000000000000 ) ) ;
#278 = CC_DESIGN_PERSON_AND_ORGANIZATION_ASSIGNMENT ( #248, #59, ( #52 ) ) ;
#279 = DIRECTION ( 'NONE',  ( 0.0000000000000000000, 1.000000000000000000, 0.0000000000000000000 ) ) ;
#280 = CALENDAR_DATE ( 2021, 1, 12 ) ;
#281 = CYLINDRICAL_SURFACE ( 'NONE', #299, 0.9149999999999995914 ) ;
#282 = CIRCLE ( 'NONE', #166, 1.499999999999996669 ) ;
#283 = CALENDAR_DATE ( 2021, 1, 12 ) ;
#284 = DIRECTION ( 'NONE',  ( -3.491481338843133355E-15, 1.224646799147353207E-16, -1.000000000000000000 ) ) ;
#285 = AXIS2_PLACEMENT_3D ( 'NONE', #135, #8, #217 ) ;
#286 = CARTESIAN_POINT ( 'NONE',  ( 6.056776150402963091E-14, -2.124431095542013992E-15, 17.34729635533384595 ) ) ;
#287 = CARTESIAN_POINT ( 'NONE',  ( 8.728703347107829444E-16, -3.061616997868381785E-17, 0.2499999999999998890 ) ) ;
#288 = DIRECTION ( 'NONE',  ( 0.0000000000000000000, -1.000000000000000000, 0.0000000000000000000 ) ) ;
#289 = AXIS2_PLACEMENT_3D ( 'NONE', #72, #75, #98 ) ;
#290 = DIRECTION ( 'NONE',  ( 0.0000000000000000000, 1.000000000000000000, 0.0000000000000000000 ) ) ;
#291 = DATE_AND_TIME ( #56, #270 ) ;
#292 = CALENDAR_DATE ( 2021, 1, 12 ) ;
#293 = CIRCLE ( 'NONE', #31, 0.8453844939755755794 ) ;
#294 = VERTEX_POINT ( 'NONE', #272 ) ;
#295 = APPROVAL_DATE_TIME ( #33, #169 ) ;
#296 = ORIENTED_EDGE ( 'NONE', *, *, #68, .F. ) ;
#297 = APPROVAL_ROLE ( '' ) ;
#298 = FACE_OUTER_BOUND ( 'NONE', #234, .T. ) ;
#299 = AXIS2_PLACEMENT_3D ( 'NONE', #4, #190, #14 ) ;
#300 = CC_DESIGN_SECURITY_CLASSIFICATION ( #74, ( #177 ) ) ;
#301 = ORIENTED_EDGE ( 'NONE', *, *, #203, .F. ) ;
#302 = ORIENTED_EDGE ( 'NONE', *, *, #189, .F. ) ;
#303 = UNCERTAINTY_MEASURE_WITH_UNIT (LENGTH_MEASURE( 1.000000000000000082E-05 ), #250, 'distance_accuracy_value', 'NONE');
ENDSEC;
END-ISO-10303-21;
