ISO-10303-21;
HEADER;
FILE_DESCRIPTION (( 'STEP AP203' ),
    '1' );
FILE_NAME ('97286.step',
    '2021-11-05T15:02:27',
    ( '' ),
    ( '' ),
    'SwSTEP 2.0',
    'SolidWorks 2019',
    '' );
FILE_SCHEMA (( 'CONFIG_CONTROL_DESIGN' ));
ENDSEC;

DATA;
#1 = APPROVAL_STATUS ( 'not_yet_approved' ) ;
#2 = VERTEX_POINT ( 'NONE', #171 ) ;
#3 = PLANE ( 'NONE',  #118 ) ;
#4 = EDGE_LOOP ( 'NONE', ( #173 ) ) ;
#5 = AXIS2_PLACEMENT_3D ( 'NONE', #47, #38, #207 ) ;
#6 = DIRECTION ( 'NONE',  ( -3.491481338843133355E-15, 1.224646799147353207E-16, -1.000000000000000000 ) ) ;
#7 = CARTESIAN_POINT ( 'NONE',  ( 4.189777606611760026E-14, -1.469576158976823947E-15, 12.00000000000000000 ) ) ;
#8 = CC_DESIGN_PERSON_AND_ORGANIZATION_ASSIGNMENT ( #166, #74, ( #66 ) ) ;
#9 = DIRECTION ( 'NONE',  ( 0.0000000000000000000, 1.000000000000000000, 0.0000000000000000000 ) ) ;
#10 = AXIS2_PLACEMENT_3D ( 'NONE', #131, #129, #70 ) ;
#11 = CARTESIAN_POINT ( 'NONE',  ( 1.745740669421566678E-13, -6.123233995736766085E-15, 50.00000000000000000 ) ) ;
#12 = APPROVAL_ROLE ( '' ) ;
#13 = CC_DESIGN_DATE_AND_TIME_ASSIGNMENT ( #55, #122, ( #175 ) ) ;
#14 = APPROVAL_DATE_TIME ( #151, #177 ) ;
#15 = AXIS2_PLACEMENT_3D ( 'NONE', #116, #196, #30 ) ;
#16 = CALENDAR_DATE ( 2021, 5, 11 ) ;
#17 = ADVANCED_FACE ( 'NONE', ( #51 ), #31, .F. ) ;
#18 = SHAPE_DEFINITION_REPRESENTATION ( #200, #54 ) ;
#19 = CC_DESIGN_APPROVAL ( #177, ( #66 ) ) ;
#20 = VERTEX_POINT ( 'NONE', #209 ) ;
#21 = CC_DESIGN_PERSON_AND_ORGANIZATION_ASSIGNMENT ( #187, #136, ( #175 ) ) ;
#22 = CARTESIAN_POINT ( 'NONE',  ( 1.731774744066194397E-13, 1.999999999999995337, 49.60000000000000853 ) ) ;
#23 =( GEOMETRIC_REPRESENTATION_CONTEXT ( 3 ) GLOBAL_UNCERTAINTY_ASSIGNED_CONTEXT ( ( #36 ) ) GLOBAL_UNIT_ASSIGNED_CONTEXT ( ( #93, #61, #126 ) ) REPRESENTATION_CONTEXT ( 'NONE', 'WORKASPACE' ) );
#24 = EDGE_LOOP ( 'NONE', ( #81 ) ) ;
#25 = PLANE ( 'NONE',  #170 ) ;
#26 = CARTESIAN_POINT ( 'NONE',  ( 0.0000000000000000000, 0.0000000000000000000, 0.0000000000000000000 ) ) ;
#27 = EDGE_CURVE ( 'NONE', #206, #206, #57, .T. ) ;
#28 = AXIS2_PLACEMENT_3D ( 'NONE', #184, #117, #69 ) ;
#29 = PLANE ( 'NONE',  #10 ) ;
#30 = DIRECTION ( 'NONE',  ( 0.0000000000000000000, 1.000000000000000000, 0.0000000000000000000 ) ) ;
#31 = PLANE ( 'NONE',  #146 ) ;
#32 = ADVANCED_FACE ( 'NONE', ( #142 ), #29, .F. ) ;
#33 = CLOSED_SHELL ( 'NONE', ( #220, #79, #85, #32 ) ) ;
#34 = COORDINATED_UNIVERSAL_TIME_OFFSET ( 1, 0, .AHEAD. ) ;
#35 = APPROVAL_ROLE ( '' ) ;
#36 = UNCERTAINTY_MEASURE_WITH_UNIT (LENGTH_MEASURE( 1.000000000000000082E-05 ), #93, 'distance_accuracy_value', 'NONE');
#37 = COORDINATED_UNIVERSAL_TIME_OFFSET ( 1, 0, .AHEAD. ) ;
#38 = DIRECTION ( 'NONE',  ( -3.491481338843133355E-15, 1.224646799147353207E-16, -1.000000000000000000 ) ) ;
#39 = ORIENTED_EDGE ( 'NONE', *, *, #27, .F. ) ;
#40 = FACE_OUTER_BOUND ( 'NONE', #65, .T. ) ;
#41 = EDGE_LOOP ( 'NONE', ( #128 ) ) ;
#42 = MECHANICAL_CONTEXT ( 'NONE', #161, 'mechanical' ) ;
#43 = CIRCLE ( 'NONE', #211, 1.600000000000001421 ) ;
#44 = ADVANCED_FACE ( 'NONE', ( #144, #103 ), #135, .T. ) ;
#45 = ORIENTED_EDGE ( 'NONE', *, *, #186, .F. ) ;
#46 = EDGE_LOOP ( 'NONE', ( #210 ) ) ;
#47 = CARTESIAN_POINT ( 'NONE',  ( 0.0000000000000000000, 0.0000000000000000000, 0.0000000000000000000 ) ) ;
#48 = LOCAL_TIME ( 16, 2, 27.00000000000000000, #58 ) ;
#49 = DIRECTION ( 'NONE',  ( 0.0000000000000000000, 1.000000000000000000, 0.0000000000000000000 ) ) ;
#50 = DIRECTION ( 'NONE',  ( 1.000000000000000000, 0.0000000000000000000, -3.491481338843133355E-15 ) ) ;
#51 = FACE_OUTER_BOUND ( 'NONE', #67, .T. ) ;
#52 = APPROVAL_ROLE ( '' ) ;
#53 = EDGE_CURVE ( 'NONE', #138, #138, #60, .T. ) ;
#54 = ADVANCED_BREP_SHAPE_REPRESENTATION ( '97286', ( #89, #154, #215 ), #23 ) ;
#55 = DATE_AND_TIME ( #56, #178 ) ;
#56 = CALENDAR_DATE ( 2021, 5, 11 ) ;
#57 = CIRCLE ( 'NONE', #205, 1.850000000000001865 ) ;
#58 = COORDINATED_UNIVERSAL_TIME_OFFSET ( 1, 0, .AHEAD. ) ;
#59 = DIRECTION ( 'NONE',  ( 3.491481338843133355E-15, -1.224646799147353207E-16, 1.000000000000000000 ) ) ;
#60 = CIRCLE ( 'NONE', #125, 1.999999999999996669 ) ;
#61 =( NAMED_UNIT ( * ) PLANE_ANGLE_UNIT ( ) SI_UNIT ( $, .RADIAN. ) );
#62 = DIRECTION ( 'NONE',  ( 1.000000000000000000, 0.0000000000000000000, 0.0000000000000000000 ) ) ;
#63 = EDGE_CURVE ( 'NONE', #78, #78, #219, .T. ) ;
#64 = CC_DESIGN_SECURITY_CLASSIFICATION ( #175, ( #134 ) ) ;
#65 = EDGE_LOOP ( 'NONE', ( #159 ) ) ;
#66 = PRODUCT_DEFINITION ( 'UNKNOWN', '', #134, #182 ) ;
#67 = EDGE_LOOP ( 'NONE', ( #39 ) ) ;
#68 = CARTESIAN_POINT ( 'NONE',  ( 1.745740669421566678E-13, -6.123233995736766085E-15, 50.00000000000000000 ) ) ;
#69 = DIRECTION ( 'NONE',  ( 1.000000000000000000, 0.0000000000000000000, -3.496552006265751800E-15 ) ) ;
#70 = DIRECTION ( 'NONE',  ( 4.275831445896958607E-31, 1.000000000000000000, 1.224646799147353207E-16 ) ) ;
#71 = DIRECTION ( 'NONE',  ( 3.491481338843133355E-15, -0.0000000000000000000, 1.000000000000000000 ) ) ;
#72 = PERSON_AND_ORGANIZATION ( #212, #77 ) ;
#73 = APPLICATION_CONTEXT ( 'configuration controlled 3d designs of mechanical parts and assemblies' ) ;
#74 = PERSON_AND_ORGANIZATION_ROLE ( 'creator' ) ;
#75 = LOCAL_TIME ( 16, 2, 27.00000000000000000, #34 ) ;
#76 = SECURITY_CLASSIFICATION_LEVEL ( 'unclassified' ) ;
#77 = ORGANIZATION ( 'UNSPECIFIED', 'UNSPECIFIED', '' ) ;
#78 = VERTEX_POINT ( 'NONE', #22 ) ;
#79 = ADVANCED_FACE ( 'NONE', ( #82, #102 ), #185, .T. ) ;
#80 = APPROVAL ( #188, 'UNSPECIFIED' ) ;
#81 = ORIENTED_EDGE ( 'NONE', *, *, #53, .T. ) ;
#82 = FACE_OUTER_BOUND ( 'NONE', #96, .T. ) ;
#83 = DIRECTION ( 'NONE',  ( 3.491481338843133355E-15, -0.0000000000000000000, 1.000000000000000000 ) ) ;
#84 = APPROVAL_PERSON_ORGANIZATION ( #153, #177, #12 ) ;
#85 = ADVANCED_FACE ( 'NONE', ( #100, #165 ), #145, .T. ) ;
#86 = DIRECTION ( 'NONE',  ( 1.000000000000000000, 0.0000000000000000000, -3.496552006265751800E-15 ) ) ;
#87 = PERSON_AND_ORGANIZATION ( #212, #77 ) ;
#88 = LOCAL_TIME ( 16, 2, 27.00000000000000000, #37 ) ;
#89 = MANIFOLD_SOLID_BREP ( 'Corps-Déplacer/Copier1[1]', #33 ) ;
#90 = APPROVAL_STATUS ( 'not_yet_approved' ) ;
#91 = APPROVAL_DATE_TIME ( #104, #80 ) ;
#92 = AXIS2_PLACEMENT_3D ( 'NONE', #101, #130, #198 ) ;
#93 =( LENGTH_UNIT ( ) NAMED_UNIT ( * ) SI_UNIT ( .MILLI., .METRE. ) );
#94 = ORIENTED_EDGE ( 'NONE', *, *, #186, .T. ) ;
#95 = VERTEX_POINT ( 'NONE', #141 ) ;
#96 = EDGE_LOOP ( 'NONE', ( #194 ) ) ;
#97 = CIRCLE ( 'NONE', #155, 2.000000000000000000 ) ;
#98 = CARTESIAN_POINT ( 'NONE',  ( 4.189777606611760026E-14, 1.499759782661853229E-32, 12.00000000000000000 ) ) ;
#99 = EDGE_LOOP ( 'NONE', ( #94 ) ) ;
#100 = FACE_OUTER_BOUND ( 'NONE', #158, .T. ) ;
#101 = CARTESIAN_POINT ( 'NONE',  ( 4.189777606611760026E-14, -1.469576158976823947E-15, 12.00000000000000000 ) ) ;
#102 = FACE_OUTER_BOUND ( 'NONE', #46, .T. ) ;
#103 = FACE_OUTER_BOUND ( 'NONE', #4, .T. ) ;
#104 = DATE_AND_TIME ( #16, #88 ) ;
#105 = CALENDAR_DATE ( 2021, 5, 11 ) ;
#106 = COORDINATED_UNIVERSAL_TIME_OFFSET ( 1, 0, .AHEAD. ) ;
#107 = DATE_AND_TIME ( #169, #203 ) ;
#108 = FACE_OUTER_BOUND ( 'NONE', #24, .T. ) ;
#109 = EDGE_LOOP ( 'NONE', ( #213 ) ) ;
#110 = EDGE_CURVE ( 'NONE', #95, #95, #97, .T. ) ;
#111 = APPLICATION_PROTOCOL_DEFINITION ( 'international standard', 'config_control_design', 1994, #161 ) ;
#112 = AXIS2_PLACEMENT_3D ( 'NONE', #26, #6, #217 ) ;
#113 = CC_DESIGN_PERSON_AND_ORGANIZATION_ASSIGNMENT ( #222, #137, ( #134 ) ) ;
#114 = DIRECTION ( 'NONE',  ( 3.491481338843133355E-15, -1.224646799147353207E-16, 1.000000000000000000 ) ) ;
#115 = FACE_OUTER_BOUND ( 'NONE', #41, .T. ) ;
#116 = CARTESIAN_POINT ( 'NONE',  ( 1.731774744066194397E-13, -6.074248123770872657E-15, 49.60000000000000853 ) ) ;
#117 = DIRECTION ( 'NONE',  ( 3.491481338843133355E-15, -0.0000000000000000000, 1.000000000000000000 ) ) ;
#118 = AXIS2_PLACEMENT_3D ( 'NONE', #98, #176, #157 ) ;
#119 = APPLICATION_PROTOCOL_DEFINITION ( 'international standard', 'config_control_design', 1994, #73 ) ;
#120 = CC_DESIGN_APPROVAL ( #80, ( #134 ) ) ;
#121 = CC_DESIGN_PERSON_AND_ORGANIZATION_ASSIGNMENT ( #87, #150, ( #134 ) ) ;
#122 = DATE_TIME_ROLE ( 'classification_date' ) ;
#123 = DATE_AND_TIME ( #105, #48 ) ;
#124 = CARTESIAN_POINT ( 'NONE',  ( 1.850000000000001865, 0.0000000000000000000, -6.459240476859803018E-15 ) ) ;
#125 = AXIS2_PLACEMENT_3D ( 'NONE', #7, #199, #49 ) ;
#126 =( NAMED_UNIT ( * ) SI_UNIT ( $, .STERADIAN. ) SOLID_ANGLE_UNIT ( ) );
#127 = ORIENTED_EDGE ( 'NONE', *, *, #63, .F. ) ;
#128 = ORIENTED_EDGE ( 'NONE', *, *, #181, .T. ) ;
#129 = DIRECTION ( 'NONE',  ( -3.491481338843133355E-15, 1.224646799147353207E-16, -1.000000000000000000 ) ) ;
#130 = DIRECTION ( 'NONE',  ( -3.491481338843133355E-15, 1.224646799147353207E-16, -1.000000000000000000 ) ) ;
#131 = CARTESIAN_POINT ( 'NONE',  ( 1.745740669421566678E-13, 1.199807826129478012E-32, 50.00000000000000000 ) ) ;
#132 = PRODUCT ( '97286', '97286', '', ( #42 ) ) ;
#133 = FACE_OUTER_BOUND ( 'NONE', #193, .T. ) ;
#134 = PRODUCT_DEFINITION_FORMATION_WITH_SPECIFIED_SOURCE ( 'ANY', '', #132, .NOT_KNOWN. ) ;
#135 = CONICAL_SURFACE ( 'NONE', #28, 2.000000000000000000, 0.7853981633974423948 ) ;
#136 = PERSON_AND_ORGANIZATION_ROLE ( 'classification_officer' ) ;
#137 = PERSON_AND_ORGANIZATION_ROLE ( 'design_supplier' ) ;
#138 = VERTEX_POINT ( 'NONE', #191 ) ;
#139 = CARTESIAN_POINT ( 'NONE',  ( 0.0000000000000000000, 0.0000000000000000000, 0.0000000000000000000 ) ) ;
#140 = ORIENTED_EDGE ( 'NONE', *, *, #110, .T. ) ;
#141 = CARTESIAN_POINT ( 'NONE',  ( 2.000000000000000444, 0.0000000000000000000, 0.1499999999999930000 ) ) ;
#142 = FACE_OUTER_BOUND ( 'NONE', #195, .T. ) ;
#143 = APPROVAL_PERSON_ORGANIZATION ( #189, #180, #35 ) ;
#144 = FACE_BOUND ( 'NONE', #109, .T. ) ;
#145 = CONICAL_SURFACE ( 'NONE', #156, 1.600000000000001421, 0.7853981633974512766 ) ;
#146 = AXIS2_PLACEMENT_3D ( 'NONE', #183, #114, #164 ) ;
#147 = DIRECTION ( 'NONE',  ( -3.491481338843133355E-15, 1.224646799147353207E-16, -1.000000000000000000 ) ) ;
#148 = CC_DESIGN_PERSON_AND_ORGANIZATION_ASSIGNMENT ( #72, #168, ( #132 ) ) ;
#149 = APPROVAL_DATE_TIME ( #107, #180 ) ;
#150 = PERSON_AND_ORGANIZATION_ROLE ( 'creator' ) ;
#151 = DATE_AND_TIME ( #221, #75 ) ;
#152 = APPROVAL_PERSON_ORGANIZATION ( #190, #80, #52 ) ;
#153 = PERSON_AND_ORGANIZATION ( #212, #77 ) ;
#154 = MANIFOLD_SOLID_BREP ( 'Corps-Déplacer/Copier1[2]', #167 ) ;
#155 = AXIS2_PLACEMENT_3D ( 'NONE', #214, #83, #86 ) ;
#156 = AXIS2_PLACEMENT_3D ( 'NONE', #11, #160, #9 ) ;
#157 = DIRECTION ( 'NONE',  ( -4.275831445896958607E-31, -1.000000000000000000, -1.224646799147353207E-16 ) ) ;
#158 = EDGE_LOOP ( 'NONE', ( #127 ) ) ;
#159 = ORIENTED_EDGE ( 'NONE', *, *, #181, .F. ) ;
#160 = DIRECTION ( 'NONE',  ( -3.491481338843133355E-15, 1.224646799147353207E-16, -1.000000000000000000 ) ) ;
#161 = APPLICATION_CONTEXT ( 'configuration controlled 3d designs of mechanical parts and assemblies' ) ;
#162 = PRODUCT_RELATED_PRODUCT_CATEGORY ( 'detail', '', ( #132 ) ) ;
#163 = CC_DESIGN_DATE_AND_TIME_ASSIGNMENT ( #123, #202, ( #66 ) ) ;
#164 = DIRECTION ( 'NONE',  ( -4.275831445896958607E-31, -1.000000000000000000, -1.224646799147353207E-16 ) ) ;
#165 = FACE_BOUND ( 'NONE', #99, .T. ) ;
#166 = PERSON_AND_ORGANIZATION ( #212, #77 ) ;
#167 = CLOSED_SHELL ( 'NONE', ( #216, #223, #44, #17 ) ) ;
#168 = PERSON_AND_ORGANIZATION_ROLE ( 'design_owner' ) ;
#169 = CALENDAR_DATE ( 2021, 5, 11 ) ;
#170 = AXIS2_PLACEMENT_3D ( 'NONE', #172, #59, #174 ) ;
#171 = CARTESIAN_POINT ( 'NONE',  ( 4.189777606611760026E-14, 1.999999999999995337, 12.00000000000000000 ) ) ;
#172 = CARTESIAN_POINT ( 'NONE',  ( 4.189777606611760026E-14, 1.499759782661853229E-32, 12.00000000000000000 ) ) ;
#173 = ORIENTED_EDGE ( 'NONE', *, *, #110, .F. ) ;
#174 = DIRECTION ( 'NONE',  ( -4.275831445896958607E-31, -1.000000000000000000, -1.224646799147353207E-16 ) ) ;
#175 = SECURITY_CLASSIFICATION ( '', '', #76 ) ;
#176 = DIRECTION ( 'NONE',  ( 3.491481338843133355E-15, -1.224646799147353207E-16, 1.000000000000000000 ) ) ;
#177 = APPROVAL ( #90, 'UNSPECIFIED' ) ;
#178 = LOCAL_TIME ( 16, 2, 27.00000000000000000, #204 ) ;
#179 = CARTESIAN_POINT ( 'NONE',  ( 0.0000000000000000000, 0.0000000000000000000, 0.0000000000000000000 ) ) ;
#180 = APPROVAL ( #1, 'UNSPECIFIED' ) ;
#181 = EDGE_CURVE ( 'NONE', #2, #2, #192, .T. ) ;
#182 = DESIGN_CONTEXT ( 'detailed design', #73, 'design' ) ;
#183 = CARTESIAN_POINT ( 'NONE',  ( -3.206893176760999064E-31, 1.124826709063586057E-32, -9.184907108292236459E-17 ) ) ;
#184 = CARTESIAN_POINT ( 'NONE',  ( 5.237222008264699047E-16, 0.0000000000000000000, 0.1499999999999999944 ) ) ;
#185 = CYLINDRICAL_SURFACE ( 'NONE', #112, 1.999999999999999112 ) ;
#186 = EDGE_CURVE ( 'NONE', #20, #20, #43, .T. ) ;
#187 = PERSON_AND_ORGANIZATION ( #212, #77 ) ;
#188 = APPROVAL_STATUS ( 'not_yet_approved' ) ;
#189 = PERSON_AND_ORGANIZATION ( #212, #77 ) ;
#190 = PERSON_AND_ORGANIZATION ( #212, #77 ) ;
#191 = CARTESIAN_POINT ( 'NONE',  ( 4.189777606611760026E-14, 1.999999999999995337, 12.00000000000000000 ) ) ;
#192 = CIRCLE ( 'NONE', #92, 1.999999999999996669 ) ;
#193 = EDGE_LOOP ( 'NONE', ( #140 ) ) ;
#194 = ORIENTED_EDGE ( 'NONE', *, *, #53, .F. ) ;
#195 = EDGE_LOOP ( 'NONE', ( #45 ) ) ;
#196 = DIRECTION ( 'NONE',  ( -3.491481338843133355E-15, 1.224646799147353207E-16, -1.000000000000000000 ) ) ;
#197 = CC_DESIGN_APPROVAL ( #180, ( #175 ) ) ;
#198 = DIRECTION ( 'NONE',  ( 0.0000000000000000000, 1.000000000000000000, 0.0000000000000000000 ) ) ;
#199 = DIRECTION ( 'NONE',  ( -3.491481338843133355E-15, 1.224646799147353207E-16, -1.000000000000000000 ) ) ;
#200 = PRODUCT_DEFINITION_SHAPE ( 'NONE', 'NONE',  #66 ) ;
#201 = CYLINDRICAL_SURFACE ( 'NONE', #5, 1.999999999999995781 ) ;
#202 = DATE_TIME_ROLE ( 'creation_date' ) ;
#203 = LOCAL_TIME ( 16, 2, 27.00000000000000000, #106 ) ;
#204 = COORDINATED_UNIVERSAL_TIME_OFFSET ( 1, 0, .AHEAD. ) ;
#205 = AXIS2_PLACEMENT_3D ( 'NONE', #179, #71, #50 ) ;
#206 = VERTEX_POINT ( 'NONE', #124 ) ;
#207 = DIRECTION ( 'NONE',  ( 4.275831445896958607E-31, 1.000000000000000000, 1.224646799147352961E-16 ) ) ;
#208 = DIRECTION ( 'NONE',  ( 0.0000000000000000000, 0.0000000000000000000, 1.000000000000000000 ) ) ;
#209 = CARTESIAN_POINT ( 'NONE',  ( 1.745740669421566678E-13, 1.599999999999995204, 50.00000000000000000 ) ) ;
#210 = ORIENTED_EDGE ( 'NONE', *, *, #63, .T. ) ;
#211 = AXIS2_PLACEMENT_3D ( 'NONE', #68, #147, #218 ) ;
#212 = PERSON ( 'UNSPECIFIED', 'UNSPECIFIED', 'UNSPECIFIED', ('UNSPECIFIED'), ('UNSPECIFIED'), ('UNSPECIFIED') ) ;
#213 = ORIENTED_EDGE ( 'NONE', *, *, #27, .T. ) ;
#214 = CARTESIAN_POINT ( 'NONE',  ( 5.237222008264699047E-16, 0.0000000000000000000, 0.1499999999999999944 ) ) ;
#215 = AXIS2_PLACEMENT_3D ( 'NONE', #139, #208, #62 ) ;
#216 = ADVANCED_FACE ( 'NONE', ( #115, #133 ), #201, .T. ) ;
#217 = DIRECTION ( 'NONE',  ( 4.275831445896958607E-31, 1.000000000000000000, 1.224646799147353207E-16 ) ) ;
#218 = DIRECTION ( 'NONE',  ( 0.0000000000000000000, 1.000000000000000000, 0.0000000000000000000 ) ) ;
#219 = CIRCLE ( 'NONE', #15, 2.000000000000001332 ) ;
#220 = ADVANCED_FACE ( 'NONE', ( #108 ), #3, .F. ) ;
#221 = CALENDAR_DATE ( 2021, 5, 11 ) ;
#222 = PERSON_AND_ORGANIZATION ( #212, #77 ) ;
#223 = ADVANCED_FACE ( 'NONE', ( #40 ), #25, .T. ) ;
ENDSEC;
END-ISO-10303-21;
