ISO-10303-21;
HEADER;
FILE_DESCRIPTION (( 'STEP AP203' ),
    '1' );
FILE_NAME ('97284.step',
    '2021-11-05T15:02:26',
    ( '' ),
    ( '' ),
    'SwSTEP 2.0',
    'SolidWorks 2019',
    '' );
FILE_SCHEMA (( 'CONFIG_CONTROL_DESIGN' ));
ENDSEC;

DATA;
#1 = FACE_OUTER_BOUND ( 'NONE', #45, .T. ) ;
#2 = PLANE ( 'NONE',  #252 ) ;
#3 = TOROIDAL_SURFACE ( 'NONE', #186, 8.999999999999998224, 8.000000000000000000 ) ;
#4 = AXIS2_PLACEMENT_3D ( 'NONE', #82, #142, #161 ) ;
#5 = CARTESIAN_POINT ( 'NONE',  ( 1.396592535537253342E-14, -5.105869244674781062E-16, 4.000000000000000000 ) ) ;
#6 = ORIENTED_EDGE ( 'NONE', *, *, #185, .T. ) ;
#7 = FACE_OUTER_BOUND ( 'NONE', #66, .T. ) ;
#8 = EDGE_LOOP ( 'NONE', ( #42 ) ) ;
#9 = CC_DESIGN_PERSON_AND_ORGANIZATION_ASSIGNMENT ( #11, #253, ( #93 ) ) ;
#10 = EDGE_LOOP ( 'NONE', ( #128 ) ) ;
#11 = PERSON_AND_ORGANIZATION ( #18, #171 ) ;
#12 = SHAPE_DEFINITION_REPRESENTATION ( #258, #79 ) ;
#13 = PERSON_AND_ORGANIZATION_ROLE ( 'classification_officer' ) ;
#14 = CARTESIAN_POINT ( 'NONE',  ( 0.0000000000000000000, 0.0000000000000000000, 0.0000000000000000000 ) ) ;
#15 = CIRCLE ( 'NONE', #49, 1.499999999999996669 ) ;
#16 = DIRECTION ( 'NONE',  ( 3.491481338843133355E-15, -0.0000000000000000000, 1.000000000000000000 ) ) ;
#17 = COORDINATED_UNIVERSAL_TIME_OFFSET ( 1, 0, .AHEAD. ) ;
#18 = PERSON ( 'UNSPECIFIED', 'UNSPECIFIED', 'UNSPECIFIED', ('UNSPECIFIED'), ('UNSPECIFIED'), ('UNSPECIFIED') ) ;
#19 = DIRECTION ( 'NONE',  ( 1.000000000000000000, 0.0000000000000000000, -3.496552006265751800E-15 ) ) ;
#20 = FACE_OUTER_BOUND ( 'NONE', #165, .T. ) ;
#21 = APPROVAL ( #78, 'UNSPECIFIED' ) ;
#22 = DIRECTION ( 'NONE',  ( 3.491481338843133355E-15, -1.224646799147353207E-16, 1.000000000000000000 ) ) ;
#23 = FACE_OUTER_BOUND ( 'NONE', #8, .T. ) ;
#24 = CARTESIAN_POINT ( 'NONE',  ( 0.0000000000000000000, 0.0000000000000000000, 0.0000000000000000000 ) ) ;
#25 = ORIENTED_EDGE ( 'NONE', *, *, #255, .F. ) ;
#26 = ORIENTED_EDGE ( 'NONE', *, *, #242, .T. ) ;
#27 = EDGE_LOOP ( 'NONE', ( #251 ) ) ;
#28 = ADVANCED_FACE ( 'NONE', ( #126, #146 ), #127, .T. ) ;
#29 = COORDINATED_UNIVERSAL_TIME_OFFSET ( 1, 0, .AHEAD. ) ;
#30 = DATE_AND_TIME ( #189, #205 ) ;
#31 = APPROVAL_ROLE ( '' ) ;
#32 = DIRECTION ( 'NONE',  ( 1.000000000000000000, 0.0000000000000000000, 0.0000000000000000000 ) ) ;
#33 = APPROVAL_DATE_TIME ( #215, #21 ) ;
#34 =( GEOMETRIC_REPRESENTATION_CONTEXT ( 3 ) GLOBAL_UNCERTAINTY_ASSIGNED_CONTEXT ( ( #203 ) ) GLOBAL_UNIT_ASSIGNED_CONTEXT ( ( #181, #164, #225 ) ) REPRESENTATION_CONTEXT ( 'NONE', 'WORKASPACE' ) );
#35 = CARTESIAN_POINT ( 'NONE',  ( 3.491481338843133355E-16, 0.0000000000000000000, 0.1000000000000000056 ) ) ;
#36 = EDGE_CURVE ( 'NONE', #260, #260, #48, .T. ) ;
#37 = AXIS2_PLACEMENT_3D ( 'NONE', #144, #217, #139 ) ;
#38 = CARTESIAN_POINT ( 'NONE',  ( 1.396592535537253342E-14, -0.9999999999999983347, 4.000000000000000000 ) ) ;
#39 = PLANE ( 'NONE',  #74 ) ;
#40 = AXIS2_PLACEMENT_3D ( 'NONE', #5, #87, #183 ) ;
#41 = CARTESIAN_POINT ( 'NONE',  ( 2.647898311239544519E-14, -3.553534602721256196E-16, 7.583882181415004808 ) ) ;
#42 = ORIENTED_EDGE ( 'NONE', *, *, #36, .F. ) ;
#43 = DIRECTION ( 'NONE',  ( 0.0000000000000000000, -1.000000000000000000, 0.0000000000000000000 ) ) ;
#44 = DIRECTION ( 'NONE',  ( 4.275831445896958607E-31, 1.000000000000000000, 1.224646799147352961E-16 ) ) ;
#45 = EDGE_LOOP ( 'NONE', ( #147 ) ) ;
#46 = ADVANCED_FACE ( 'NONE', ( #7, #69 ), #85, .T. ) ;
#47 = ORIENTED_EDGE ( 'NONE', *, *, #90, .F. ) ;
#48 = CIRCLE ( 'NONE', #193, 0.9000000000000005773 ) ;
#49 = AXIS2_PLACEMENT_3D ( 'NONE', #41, #140, #196 ) ;
#50 = VERTEX_POINT ( 'NONE', #211 ) ;
#51 = LOCAL_TIME ( 16, 2, 26.00000000000000000, #156 ) ;
#52 = DATE_TIME_ROLE ( 'creation_date' ) ;
#53 = CC_DESIGN_DATE_AND_TIME_ASSIGNMENT ( #213, #172, ( #130 ) ) ;
#54 = CALENDAR_DATE ( 2021, 5, 11 ) ;
#55 = MANIFOLD_SOLID_BREP ( 'Corps-Déplacer/Copier1[1]', #63 ) ;
#56 = APPLICATION_PROTOCOL_DEFINITION ( 'international standard', 'config_control_design', 1994, #154 ) ;
#57 = COORDINATED_UNIVERSAL_TIME_OFFSET ( 1, 0, .AHEAD. ) ;
#58 = DIRECTION ( 'NONE',  ( -3.491481338843133355E-15, 1.224646799147353207E-16, -1.000000000000000000 ) ) ;
#59 = APPROVAL_PERSON_ORGANIZATION ( #259, #21, #158 ) ;
#60 = CARTESIAN_POINT ( 'NONE',  ( 1.675911042644703379E-14, -0.9999999999999986677, 4.799999999999998934 ) ) ;
#61 = DIRECTION ( 'NONE',  ( -4.275831445896958607E-31, -1.000000000000000000, -1.224646799147353207E-16 ) ) ;
#62 = CARTESIAN_POINT ( 'NONE',  ( 1.396592535537253342E-14, 1.124819836996388416E-32, 4.000000000000000000 ) ) ;
#63 = CLOSED_SHELL ( 'NONE', ( #68, #46, #131, #28, #95, #192 ) ) ;
#64 = DIRECTION ( 'NONE',  ( 0.0000000000000000000, -1.000000000000000000, 0.0000000000000000000 ) ) ;
#65 = ORIENTED_EDGE ( 'NONE', *, *, #255, .T. ) ;
#66 = EDGE_LOOP ( 'NONE', ( #25 ) ) ;
#67 = ORIENTED_EDGE ( 'NONE', *, *, #242, .F. ) ;
#68 = ADVANCED_FACE ( 'NONE', ( #168, #149 ), #145, .T. ) ;
#69 = FACE_BOUND ( 'NONE', #166, .T. ) ;
#70 = CARTESIAN_POINT ( 'NONE',  ( 2.647898311239544519E-14, 1.499999999999996225, 7.583882181415004808 ) ) ;
#71 = CC_DESIGN_APPROVAL ( #21, ( #113 ) ) ;
#72 = PERSON_AND_ORGANIZATION ( #18, #171 ) ;
#73 = PRODUCT_RELATED_PRODUCT_CATEGORY ( 'detail', '', ( #245 ) ) ;
#74 = AXIS2_PLACEMENT_3D ( 'NONE', #62, #224, #61 ) ;
#75 = APPROVAL_STATUS ( 'not_yet_approved' ) ;
#76 = AXIS2_PLACEMENT_3D ( 'NONE', #24, #105, #44 ) ;
#77 = CC_DESIGN_PERSON_AND_ORGANIZATION_ASSIGNMENT ( #237, #99, ( #245 ) ) ;
#78 = APPROVAL_STATUS ( 'not_yet_approved' ) ;
#79 = ADVANCED_BREP_SHAPE_REPRESENTATION ( '97284', ( #55, #138, #137 ), #34 ) ;
#80 = CARTESIAN_POINT ( 'NONE',  ( 0.9000000000000005773, 0.0000000000000000000, -3.128785857478966267E-15 ) ) ;
#81 = CARTESIAN_POINT ( 'NONE',  ( 1.396592535537253342E-14, -0.9999999999999983347, 4.000000000000000000 ) ) ;
#82 = CARTESIAN_POINT ( 'NONE',  ( -6.413839710158237013E-31, 0.0000000000000000000, -1.836996703606440502E-16 ) ) ;
#83 = CARTESIAN_POINT ( 'NONE',  ( 1.675911042644703379E-14, -6.127043093609735500E-16, 4.799999999999998934 ) ) ;
#84 = CARTESIAN_POINT ( 'NONE',  ( -6.413803915257457113E-31, 2.249659577954772199E-32, -1.836986451539393076E-16 ) ) ;
#85 = CONICAL_SURFACE ( 'NONE', #230, 1.199999999999998845, 0.7853981633974450594 ) ;
#86 = EDGE_LOOP ( 'NONE', ( #249 ) ) ;
#87 = DIRECTION ( 'NONE',  ( 3.491481338843133355E-15, -1.224646799147353207E-16, 1.000000000000000000 ) ) ;
#88 = APPROVAL_PERSON_ORGANIZATION ( #256, #220, #31 ) ;
#89 = EDGE_LOOP ( 'NONE', ( #65 ) ) ;
#90 = EDGE_CURVE ( 'NONE', #100, #100, #115, .T. ) ;
#91 = VERTEX_POINT ( 'NONE', #169 ) ;
#92 = CALENDAR_DATE ( 2021, 5, 11 ) ;
#93 = PRODUCT_DEFINITION_FORMATION_WITH_SPECIFIED_SOURCE ( 'ANY', '', #245, .NOT_KNOWN. ) ;
#94 = CALENDAR_DATE ( 2021, 5, 11 ) ;
#95 = ADVANCED_FACE ( 'NONE', ( #125, #198 ), #3, .F. ) ;
#96 = APPROVAL_DATE_TIME ( #153, #220 ) ;
#97 = LOCAL_TIME ( 16, 2, 26.00000000000000000, #29 ) ;
#98 = DIRECTION ( 'NONE',  ( -4.275831445896958607E-31, -1.000000000000000000, -1.224646799147353207E-16 ) ) ;
#99 = PERSON_AND_ORGANIZATION_ROLE ( 'design_owner' ) ;
#100 = VERTEX_POINT ( 'NONE', #81 ) ;
#101 = DIRECTION ( 'NONE',  ( 4.275831445896958607E-31, 1.000000000000000000, 1.224646799147353207E-16 ) ) ;
#102 = CC_DESIGN_DATE_AND_TIME_ASSIGNMENT ( #30, #52, ( #113 ) ) ;
#103 = CARTESIAN_POINT ( 'NONE',  ( 1.396592535537253342E-14, 1.124819836996388416E-32, 4.000000000000000000 ) ) ;
#104 = CARTESIAN_POINT ( 'NONE',  ( 3.491481338843133355E-16, 0.0000000000000000000, 0.1000000000000000056 ) ) ;
#105 = DIRECTION ( 'NONE',  ( -3.491481338843133355E-15, 1.224646799147353207E-16, -1.000000000000000000 ) ) ;
#106 = AXIS2_PLACEMENT_3D ( 'NONE', #103, #22, #222 ) ;
#107 = EDGE_LOOP ( 'NONE', ( #248 ) ) ;
#108 = DIRECTION ( 'NONE',  ( -4.456761796588772289E-31, -1.000000000000000000, -1.276467311168695019E-16 ) ) ;
#109 = EDGE_LOOP ( 'NONE', ( #223 ) ) ;
#110 = CARTESIAN_POINT ( 'NONE',  ( 1.326762908760390423E-13, -4.653657836759941941E-15, 38.00000000000000000 ) ) ;
#111 = APPROVAL_ROLE ( '' ) ;
#112 = APPROVAL_DATE_TIME ( #132, #191 ) ;
#113 = PRODUCT_DEFINITION ( 'UNKNOWN', '', #93, #227 ) ;
#114 = DIRECTION ( 'NONE',  ( 0.0000000000000000000, 0.0000000000000000000, 1.000000000000000000 ) ) ;
#115 = CIRCLE ( 'NONE', #40, 0.9999999999999978906 ) ;
#116 = CIRCLE ( 'NONE', #194, 1.499999999999998446 ) ;
#117 = FACE_OUTER_BOUND ( 'NONE', #27, .T. ) ;
#118 = AXIS2_PLACEMENT_3D ( 'NONE', #83, #123, #64 ) ;
#119 = CC_DESIGN_PERSON_AND_ORGANIZATION_ASSIGNMENT ( #72, #13, ( #130 ) ) ;
#120 = DIRECTION ( 'NONE',  ( 3.491481338843133355E-15, -1.276467311168695266E-16, 1.000000000000000000 ) ) ;
#121 = CARTESIAN_POINT ( 'NONE',  ( 1.675911042644703064E-14, 0.0000000000000000000, 4.799999999999998046 ) ) ;
#122 = ADVANCED_FACE ( 'NONE', ( #262, #1 ), #141, .T. ) ;
#123 = DIRECTION ( 'NONE',  ( 3.491481338843133355E-15, -1.276467311168695266E-16, 1.000000000000000000 ) ) ;
#124 = EDGE_LOOP ( 'NONE', ( #67 ) ) ;
#125 = FACE_OUTER_BOUND ( 'NONE', #250, .T. ) ;
#126 = FACE_OUTER_BOUND ( 'NONE', #10, .T. ) ;
#127 = CYLINDRICAL_SURFACE ( 'NONE', #182, 0.9999999999999978906 ) ;
#128 = ORIENTED_EDGE ( 'NONE', *, *, #160, .F. ) ;
#129 = CARTESIAN_POINT ( 'NONE',  ( 4.730031091674076386E-32, 0.0000000000000000000, 1.354734747985599561E-17 ) ) ;
#130 = SECURITY_CLASSIFICATION ( '', '', #236 ) ;
#131 = ADVANCED_FACE ( 'NONE', ( #20 ), #243, .F. ) ;
#132 = DATE_AND_TIME ( #92, #97 ) ;
#133 = COORDINATED_UNIVERSAL_TIME_OFFSET ( 1, 0, .AHEAD. ) ;
#134 = APPLICATION_CONTEXT ( 'configuration controlled 3d designs of mechanical parts and assemblies' ) ;
#135 = CALENDAR_DATE ( 2021, 5, 11 ) ;
#136 = CARTESIAN_POINT ( 'NONE',  ( 1.326762908760390423E-13, 8.998558695971069014E-33, 38.00000000000000000 ) ) ;
#137 = AXIS2_PLACEMENT_3D ( 'NONE', #14, #114, #32 ) ;
#138 = MANIFOLD_SOLID_BREP ( 'Corps-Déplacer/Copier1[2]', #244 ) ;
#139 = DIRECTION ( 'NONE',  ( 0.0000000000000000000, 1.000000000000000000, 0.0000000000000000000 ) ) ;
#140 = DIRECTION ( 'NONE',  ( -3.491481338843133355E-15, 1.276467311168695266E-16, -1.000000000000000000 ) ) ;
#141 = CONICAL_SURFACE ( 'NONE', #173, 1.000000000000000000, 0.7853981633974452814 ) ;
#142 = DIRECTION ( 'NONE',  ( 3.491481338843133355E-15, -1.276467311168695266E-16, 1.000000000000000000 ) ) ;
#143 = ORIENTED_EDGE ( 'NONE', *, *, #185, .F. ) ;
#144 = CARTESIAN_POINT ( 'NONE',  ( 1.326762908760390423E-13, -4.653657836759941941E-15, 38.00000000000000000 ) ) ;
#145 = CYLINDRICAL_SURFACE ( 'NONE', #76, 1.499999999999996669 ) ;
#146 = FACE_OUTER_BOUND ( 'NONE', #107, .T. ) ;
#147 = ORIENTED_EDGE ( 'NONE', *, *, #206, .F. ) ;
#148 = CC_DESIGN_PERSON_AND_ORGANIZATION_ASSIGNMENT ( #212, #190, ( #93 ) ) ;
#149 = FACE_OUTER_BOUND ( 'NONE', #124, .T. ) ;
#150 = CARTESIAN_POINT ( 'NONE',  ( -6.413839710158237013E-31, 0.0000000000000000000, -1.836996703606440502E-16 ) ) ;
#151 = VERTEX_POINT ( 'NONE', #188 ) ;
#152 = LOCAL_TIME ( 16, 2, 26.00000000000000000, #57 ) ;
#153 = DATE_AND_TIME ( #54, #51 ) ;
#154 = APPLICATION_CONTEXT ( 'configuration controlled 3d designs of mechanical parts and assemblies' ) ;
#155 = CIRCLE ( 'NONE', #37, 1.199999999999998845 ) ;
#156 = COORDINATED_UNIVERSAL_TIME_OFFSET ( 1, 0, .AHEAD. ) ;
#157 = MECHANICAL_CONTEXT ( 'NONE', #154, 'mechanical' ) ;
#158 = APPROVAL_ROLE ( '' ) ;
#159 = VERTEX_POINT ( 'NONE', #60 ) ;
#160 = EDGE_CURVE ( 'NONE', #159, #159, #209, .T. ) ;
#161 = DIRECTION ( 'NONE',  ( -4.456761796588772289E-31, -1.000000000000000000, -1.276467311168695019E-16 ) ) ;
#162 = FACE_OUTER_BOUND ( 'NONE', #204, .T. ) ;
#163 = FACE_OUTER_BOUND ( 'NONE', #226, .T. ) ;
#164 =( NAMED_UNIT ( * ) PLANE_ANGLE_UNIT ( ) SI_UNIT ( $, .RADIAN. ) );
#165 = EDGE_LOOP ( 'NONE', ( #143 ) ) ;
#166 = EDGE_LOOP ( 'NONE', ( #6 ) ) ;
#167 = EDGE_CURVE ( 'NONE', #218, #218, #234, .T. ) ;
#168 = FACE_OUTER_BOUND ( 'NONE', #89, .T. ) ;
#169 = CARTESIAN_POINT ( 'NONE',  ( 1.000000000000000444, 0.0000000000000000000, 0.09999999999999650835 ) ) ;
#170 = PERSON_AND_ORGANIZATION ( #18, #171 ) ;
#171 = ORGANIZATION ( 'UNSPECIFIED', 'UNSPECIFIED', '' ) ;
#172 = DATE_TIME_ROLE ( 'classification_date' ) ;
#173 = AXIS2_PLACEMENT_3D ( 'NONE', #104, #177, #19 ) ;
#174 = APPLICATION_PROTOCOL_DEFINITION ( 'international standard', 'config_control_design', 1994, #134 ) ;
#175 = PLANE ( 'NONE',  #106 ) ;
#176 = PERSON_AND_ORGANIZATION ( #18, #171 ) ;
#177 = DIRECTION ( 'NONE',  ( 3.491481338843133355E-15, -0.0000000000000000000, 1.000000000000000000 ) ) ;
#178 = FACE_OUTER_BOUND ( 'NONE', #109, .T. ) ;
#179 = CYLINDRICAL_SURFACE ( 'NONE', #4, 0.9999999999999978906 ) ;
#180 = EDGE_LOOP ( 'NONE', ( #26 ) ) ;
#181 =( LENGTH_UNIT ( ) NAMED_UNIT ( * ) SI_UNIT ( .MILLI., .METRE. ) );
#182 = AXIS2_PLACEMENT_3D ( 'NONE', #150, #207, #108 ) ;
#183 = DIRECTION ( 'NONE',  ( 0.0000000000000000000, -1.000000000000000000, 0.0000000000000000000 ) ) ;
#184 = DIRECTION ( 'NONE',  ( 3.491481338843133355E-15, -0.0000000000000000000, 1.000000000000000000 ) ) ;
#185 = EDGE_CURVE ( 'NONE', #151, #151, #155, .T. ) ;
#186 = AXIS2_PLACEMENT_3D ( 'NONE', #121, #120, #221 ) ;
#187 = DIRECTION ( 'NONE',  ( 0.0000000000000000000, 1.000000000000000000, 0.0000000000000000000 ) ) ;
#188 = CARTESIAN_POINT ( 'NONE',  ( 1.326762908760390423E-13, 1.199999999999994182, 38.00000000000000000 ) ) ;
#189 = CALENDAR_DATE ( 2021, 5, 11 ) ;
#190 = PERSON_AND_ORGANIZATION_ROLE ( 'design_supplier' ) ;
#191 = APPROVAL ( #233, 'UNSPECIFIED' ) ;
#192 = ADVANCED_FACE ( 'NONE', ( #162 ), #39, .F. ) ;
#193 = AXIS2_PLACEMENT_3D ( 'NONE', #129, #184, #202 ) ;
#194 = AXIS2_PLACEMENT_3D ( 'NONE', #238, #239, #200 ) ;
#195 = PERSON_AND_ORGANIZATION_ROLE ( 'creator' ) ;
#196 = DIRECTION ( 'NONE',  ( 0.0000000000000000000, 1.000000000000000000, 0.0000000000000000000 ) ) ;
#197 = AXIS2_PLACEMENT_3D ( 'NONE', #241, #261, #43 ) ;
#198 = FACE_OUTER_BOUND ( 'NONE', #180, .T. ) ;
#199 = DIRECTION ( 'NONE',  ( 1.000000000000000000, 0.0000000000000000000, -3.496552006265751800E-15 ) ) ;
#200 = DIRECTION ( 'NONE',  ( 0.0000000000000000000, 1.000000000000000000, 0.0000000000000000000 ) ) ;
#201 = ORIENTED_EDGE ( 'NONE', *, *, #167, .T. ) ;
#202 = DIRECTION ( 'NONE',  ( 1.000000000000000000, 0.0000000000000000000, -3.491481338843133750E-15 ) ) ;
#203 = UNCERTAINTY_MEASURE_WITH_UNIT (LENGTH_MEASURE( 1.000000000000000082E-05 ), #181, 'distance_accuracy_value', 'NONE');
#204 = EDGE_LOOP ( 'NONE', ( #47 ) ) ;
#205 = LOCAL_TIME ( 16, 2, 26.00000000000000000, #17 ) ;
#206 = EDGE_CURVE ( 'NONE', #91, #91, #219, .T. ) ;
#207 = DIRECTION ( 'NONE',  ( 3.491481338843133355E-15, -1.276467311168695266E-16, 1.000000000000000000 ) ) ;
#208 = CC_DESIGN_SECURITY_CLASSIFICATION ( #130, ( #93 ) ) ;
#209 = CIRCLE ( 'NONE', #118, 0.9999999999999981126 ) ;
#210 = APPROVAL_PERSON_ORGANIZATION ( #170, #191, #111 ) ;
#211 = CARTESIAN_POINT ( 'NONE',  ( 1.316288464743861212E-13, 1.499999999999994005, 37.69999999999999574 ) ) ;
#212 = PERSON_AND_ORGANIZATION ( #18, #171 ) ;
#213 = DATE_AND_TIME ( #94, #254 ) ;
#214 = ADVANCED_FACE ( 'NONE', ( #117, #178 ), #179, .T. ) ;
#215 = DATE_AND_TIME ( #135, #152 ) ;
#216 = AXIS2_PLACEMENT_3D ( 'NONE', #35, #16, #199 ) ;
#217 = DIRECTION ( 'NONE',  ( -3.491481338843133355E-15, 1.224646799147353207E-16, -1.000000000000000000 ) ) ;
#218 = VERTEX_POINT ( 'NONE', #38 ) ;
#219 = CIRCLE ( 'NONE', #216, 1.000000000000000000 ) ;
#220 = APPROVAL ( #75, 'UNSPECIFIED' ) ;
#221 = DIRECTION ( 'NONE',  ( -2.737846417412288339E-31, -1.000000000000000000, -1.276467311168695266E-16 ) ) ;
#222 = DIRECTION ( 'NONE',  ( -4.275831445896958607E-31, -1.000000000000000000, -1.224646799147353207E-16 ) ) ;
#223 = ORIENTED_EDGE ( 'NONE', *, *, #206, .T. ) ;
#224 = DIRECTION ( 'NONE',  ( 3.491481338843133355E-15, -1.224646799147353207E-16, 1.000000000000000000 ) ) ;
#225 =( NAMED_UNIT ( * ) SI_UNIT ( $, .STERADIAN. ) SOLID_ANGLE_UNIT ( ) );
#226 = EDGE_LOOP ( 'NONE', ( #201 ) ) ;
#227 = DESIGN_CONTEXT ( 'detailed design', #134, 'design' ) ;
#228 = ORIENTED_EDGE ( 'NONE', *, *, #160, .T. ) ;
#229 = DIRECTION ( 'NONE',  ( -3.491481338843133355E-15, 1.224646799147353207E-16, -1.000000000000000000 ) ) ;
#230 = AXIS2_PLACEMENT_3D ( 'NONE', #110, #229, #187 ) ;
#231 = VERTEX_POINT ( 'NONE', #70 ) ;
#232 = CC_DESIGN_APPROVAL ( #220, ( #130 ) ) ;
#233 = APPROVAL_STATUS ( 'not_yet_approved' ) ;
#234 = CIRCLE ( 'NONE', #197, 0.9999999999999978906 ) ;
#235 = ADVANCED_FACE ( 'NONE', ( #163 ), #175, .T. ) ;
#236 = SECURITY_CLASSIFICATION_LEVEL ( 'unclassified' ) ;
#237 = PERSON_AND_ORGANIZATION ( #18, #171 ) ;
#238 = CARTESIAN_POINT ( 'NONE',  ( 1.316288464743861212E-13, -4.616918432785521081E-15, 37.69999999999999574 ) ) ;
#239 = DIRECTION ( 'NONE',  ( -3.491481338843133355E-15, 1.224646799147353207E-16, -1.000000000000000000 ) ) ;
#240 = CC_DESIGN_PERSON_AND_ORGANIZATION_ASSIGNMENT ( #176, #195, ( #113 ) ) ;
#241 = CARTESIAN_POINT ( 'NONE',  ( 1.396592535537253342E-14, -5.105869244674781062E-16, 4.000000000000000000 ) ) ;
#242 = EDGE_CURVE ( 'NONE', #231, #231, #15, .T. ) ;
#243 = PLANE ( 'NONE',  #257 ) ;
#244 = CLOSED_SHELL ( 'NONE', ( #214, #235, #122, #263 ) ) ;
#245 = PRODUCT ( '97284', '97284', '', ( #157 ) ) ;
#246 = CC_DESIGN_APPROVAL ( #191, ( #93 ) ) ;
#247 = DIRECTION ( 'NONE',  ( 3.491481338843133355E-15, -1.224646799147353207E-16, 1.000000000000000000 ) ) ;
#248 = ORIENTED_EDGE ( 'NONE', *, *, #90, .T. ) ;
#249 = ORIENTED_EDGE ( 'NONE', *, *, #36, .T. ) ;
#250 = EDGE_LOOP ( 'NONE', ( #228 ) ) ;
#251 = ORIENTED_EDGE ( 'NONE', *, *, #167, .F. ) ;
#252 = AXIS2_PLACEMENT_3D ( 'NONE', #84, #247, #98 ) ;
#253 = PERSON_AND_ORGANIZATION_ROLE ( 'creator' ) ;
#254 = LOCAL_TIME ( 16, 2, 26.00000000000000000, #133 ) ;
#255 = EDGE_CURVE ( 'NONE', #50, #50, #116, .T. ) ;
#256 = PERSON_AND_ORGANIZATION ( #18, #171 ) ;
#257 = AXIS2_PLACEMENT_3D ( 'NONE', #136, #58, #101 ) ;
#258 = PRODUCT_DEFINITION_SHAPE ( 'NONE', 'NONE',  #113 ) ;
#259 = PERSON_AND_ORGANIZATION ( #18, #171 ) ;
#260 = VERTEX_POINT ( 'NONE', #80 ) ;
#261 = DIRECTION ( 'NONE',  ( 3.491481338843133355E-15, -1.224646799147353207E-16, 1.000000000000000000 ) ) ;
#262 = FACE_BOUND ( 'NONE', #86, .T. ) ;
#263 = ADVANCED_FACE ( 'NONE', ( #23 ), #2, .F. ) ;
ENDSEC;
END-ISO-10303-21;
