ISO-10303-21;
HEADER;
FILE_DESCRIPTION (( 'STEP AP203' ),
    '1' );
FILE_NAME ('971141.step',
    '2021-11-30T09:01:44',
    ( '' ),
    ( '' ),
    'SwSTEP 2.0',
    'SolidWorks 2019',
    '' );
FILE_SCHEMA (( 'CONFIG_CONTROL_DESIGN' ));
ENDSEC;

DATA;
#1 = VERTEX_POINT ( 'NONE', #25 ) ;
#2 = VERTEX_POINT ( 'NONE', #145 ) ;
#3 = CIRCLE ( 'NONE', #190, 1.075000000000000178 ) ;
#4 = APPROVAL_DATE_TIME ( #171, #118 ) ;
#5 = AXIS2_PLACEMENT_3D ( 'NONE', #136, #111, #273 ) ;
#6 = DIRECTION ( 'NONE',  ( -3.491481338843133355E-15, 1.224646799147353454E-16, -1.000000000000000000 ) ) ;
#7 = PERSON_AND_ORGANIZATION ( #95, #301 ) ;
#8 = ORIENTED_EDGE ( 'NONE', *, *, #279, .F. ) ;
#9 = ORIENTED_EDGE ( 'NONE', *, *, #284, .F. ) ;
#10 = LOCAL_TIME ( 10, 1, 44.00000000000000000, #191 ) ;
#11 = DATE_AND_TIME ( #151, #115 ) ;
#12 = ORIENTED_EDGE ( 'NONE', *, *, #103, .F. ) ;
#13 = APPROVAL_ROLE ( '' ) ;
#14 = PLANE ( 'NONE',  #218 ) ;
#15 = DIRECTION ( 'NONE',  ( 0.0000000000000000000, -1.000000000000000000, 0.0000000000000000000 ) ) ;
#16 = FACE_OUTER_BOUND ( 'NONE', #293, .T. ) ;
#17 = EDGE_CURVE ( 'NONE', #283, #283, #83, .T. ) ;
#18 = FACE_OUTER_BOUND ( 'NONE', #195, .T. ) ;
#19 = DIRECTION ( 'NONE',  ( 3.491481338843133355E-15, -1.224646799147353454E-16, 1.000000000000000000 ) ) ;
#20 = DIRECTION ( 'NONE',  ( -4.449587857652454859E-31, -1.000000000000000000, -1.252447638604742456E-16 ) ) ;
#21 = CLOSED_SHELL ( 'NONE', ( #158, #297, #189, #275, #193, #220, #226, #28 ) ) ;
#22 = LOCAL_TIME ( 10, 1, 44.00000000000000000, #216 ) ;
#23 = PERSON_AND_ORGANIZATION ( #95, #301 ) ;
#24 = VERTEX_POINT ( 'NONE', #232 ) ;
#25 = CARTESIAN_POINT ( 'NONE',  ( 2.129803616694311221E-13, 1.199999999999993960, 61.00000000000000000 ) ) ;
#26 = ADVANCED_FACE ( 'NONE', ( #105 ), #132, .F. ) ;
#27 = VERTEX_POINT ( 'NONE', #49 ) ;
#28 = ADVANCED_FACE ( 'NONE', ( #78 ), #14, .F. ) ;
#29 = DATE_AND_TIME ( #106, #10 ) ;
#30 = ORIENTED_EDGE ( 'NONE', *, *, #113, .T. ) ;
#31 = CALENDAR_DATE ( 2021, 30, 11 ) ;
#32 = APPLICATION_CONTEXT ( 'configuration controlled 3d designs of mechanical parts and assemblies' ) ;
#33 = ORIENTED_EDGE ( 'NONE', *, *, #210, .T. ) ;
#34 = PERSON_AND_ORGANIZATION ( #95, #301 ) ;
#35 = EDGE_LOOP ( 'NONE', ( #79 ) ) ;
#36 = AXIS2_PLACEMENT_3D ( 'NONE', #219, #123, #212 ) ;
#37 = CIRCLE ( 'NONE', #66, 1.298500000000000210 ) ;
#38 = EDGE_LOOP ( 'NONE', ( #217 ) ) ;
#39 = CARTESIAN_POINT ( 'NONE',  ( 0.0000000000000000000, 0.0000000000000000000, 0.0000000000000000000 ) ) ;
#40 = APPROVAL_PERSON_ORGANIZATION ( #125, #198, #13 ) ;
#41 = DIRECTION ( 'NONE',  ( 4.275831445896960358E-31, 1.000000000000000000, 1.224646799147353454E-16 ) ) ;
#42 = CARTESIAN_POINT ( 'NONE',  ( 2.129803616694311221E-13, -7.470345474798856659E-15, 61.00000000000000000 ) ) ;
#43 = CARTESIAN_POINT ( 'NONE',  ( 8.728703347107829444E-16, -3.061616997868382402E-17, 0.2499999999999998890 ) ) ;
#44 = CIRCLE ( 'NONE', #204, 1.074999999999998845 ) ;
#45 = VERTEX_POINT ( 'NONE', #120 ) ;
#46 = CARTESIAN_POINT ( 'NONE',  ( 7.104220552055900573E-14, 1.105384493975578808, 20.34729635533384240 ) ) ;
#47 = ADVANCED_FACE ( 'NONE', ( #192, #263 ), #51, .T. ) ;
#48 = AXIS2_PLACEMENT_3D ( 'NONE', #250, #298, #114 ) ;
#49 = CARTESIAN_POINT ( 'NONE',  ( -3.785471652766322713E-31, 1.154162432702594554, -1.084202172485504434E-16 ) ) ;
#50 = CC_DESIGN_PERSON_AND_ORGANIZATION_ASSIGNMENT ( #7, #99, ( #246 ) ) ;
#51 = CYLINDRICAL_SURFACE ( 'NONE', #175, 1.298499999999999543 ) ;
#52 = AXIS2_PLACEMENT_3D ( 'NONE', #43, #227, #20 ) ;
#53 = DATE_TIME_ROLE ( 'creation_date' ) ;
#54 = ORIENTED_EDGE ( 'NONE', *, *, #139, .F. ) ;
#55 = APPROVAL_STATUS ( 'not_yet_approved' ) ;
#56 = CARTESIAN_POINT ( 'NONE',  ( 7.104220552055900573E-14, -2.491825135286219831E-15, 20.34729635533384240 ) ) ;
#57 = PERSON_AND_ORGANIZATION ( #95, #301 ) ;
#58 = EDGE_LOOP ( 'NONE', ( #291 ) ) ;
#59 = AXIS2_PLACEMENT_3D ( 'NONE', #300, #86, #296 ) ;
#60 = AXIS2_PLACEMENT_3D ( 'NONE', #109, #84, #180 ) ;
#61 = CARTESIAN_POINT ( 'NONE',  ( 3.491481338843133355E-14, -1.224646799147353454E-15, 10.00000000000000000 ) ) ;
#62 = DIRECTION ( 'NONE',  ( -3.491481338843133355E-15, 1.224646799147353454E-16, -1.000000000000000000 ) ) ;
#63 = DIRECTION ( 'NONE',  ( 4.275831445896959482E-31, 1.000000000000000000, 1.224646799147353454E-16 ) ) ;
#64 = DIRECTION ( 'NONE',  ( 3.491481338843133355E-15, -1.224646799147353454E-16, 1.000000000000000000 ) ) ;
#65 = PERSON_AND_ORGANIZATION ( #95, #301 ) ;
#66 = AXIS2_PLACEMENT_3D ( 'NONE', #160, #138, #294 ) ;
#67 = CARTESIAN_POINT ( 'NONE',  ( 6.982962677686266711E-14, -2.602085213965210642E-15, 20.00000000000000000 ) ) ;
#68 =( NAMED_UNIT ( * ) PLANE_ANGLE_UNIT ( ) SI_UNIT ( $, .RADIAN. ) );
#69 = DIRECTION ( 'NONE',  ( -3.491481338843133355E-15, 1.224646799147353454E-16, -1.000000000000000000 ) ) ;
#70 = AXIS2_PLACEMENT_3D ( 'NONE', #39, #62, #41 ) ;
#71 = APPROVAL_PERSON_ORGANIZATION ( #23, #118, #242 ) ;
#72 = APPROVAL_DATE_TIME ( #194, #198 ) ;
#73 = UNCERTAINTY_MEASURE_WITH_UNIT (LENGTH_MEASURE( 1.000000000000000082E-05 ), #94, 'distance_accuracy_value', 'NONE');
#74 = APPROVAL_STATUS ( 'not_yet_approved' ) ;
#75 = EDGE_LOOP ( 'NONE', ( #174 ) ) ;
#76 = APPLICATION_CONTEXT ( 'configuration controlled 3d designs of mechanical parts and assemblies' ) ;
#77 = CALENDAR_DATE ( 2021, 30, 11 ) ;
#78 = FACE_OUTER_BOUND ( 'NONE', #235, .T. ) ;
#79 = ORIENTED_EDGE ( 'NONE', *, *, #210, .F. ) ;
#80 = COORDINATED_UNIVERSAL_TIME_OFFSET ( 1, 0, .AHEAD. ) ;
#81 = ORIENTED_EDGE ( 'NONE', *, *, #113, .F. ) ;
#82 = CIRCLE ( 'NONE', #285, 1.298499999999998877 ) ;
#83 = CIRCLE ( 'NONE', #98, 1.105384493975581250 ) ;
#84 = DIRECTION ( 'NONE',  ( -3.491481338843133355E-15, 1.224646799147353454E-16, -1.000000000000000000 ) ) ;
#85 = FACE_OUTER_BOUND ( 'NONE', #35, .T. ) ;
#86 = DIRECTION ( 'NONE',  ( -3.491481338843133355E-15, 1.224646799147353454E-16, -1.000000000000000000 ) ) ;
#87 = DIRECTION ( 'NONE',  ( -3.491481338843133355E-15, 1.224646799147353454E-16, -1.000000000000000000 ) ) ;
#88 = CC_DESIGN_PERSON_AND_ORGANIZATION_ASSIGNMENT ( #57, #239, ( #201 ) ) ;
#89 = DIRECTION ( 'NONE',  ( -3.491481338843133355E-15, 1.224646799147353454E-16, -1.000000000000000000 ) ) ;
#90 = DIRECTION ( 'NONE',  ( 0.0000000000000000000, 1.000000000000000000, 0.0000000000000000000 ) ) ;
#91 = FACE_OUTER_BOUND ( 'NONE', #289, .T. ) ;
#92 = CC_DESIGN_PERSON_AND_ORGANIZATION_ASSIGNMENT ( #213, #101, ( #261 ) ) ;
#93 = CARTESIAN_POINT ( 'NONE',  ( 6.982962677686266711E-14, 1.074999999999997735, 20.00000000000000000 ) ) ;
#94 =( LENGTH_UNIT ( ) NAMED_UNIT ( * ) SI_UNIT ( .MILLI., .METRE. ) );
#95 = PERSON ( 'UNSPECIFIED', 'UNSPECIFIED', 'UNSPECIFIED', ('UNSPECIFIED'), ('UNSPECIFIED'), ('UNSPECIFIED') ) ;
#96 = FACE_OUTER_BOUND ( 'NONE', #58, .T. ) ;
#97 = AXIS2_PLACEMENT_3D ( 'NONE', #276, #19, #15 ) ;
#98 = AXIS2_PLACEMENT_3D ( 'NONE', #56, #127, #154 ) ;
#99 = PERSON_AND_ORGANIZATION_ROLE ( 'classification_officer' ) ;
#100 = EDGE_LOOP ( 'NONE', ( #173 ) ) ;
#101 = PERSON_AND_ORGANIZATION_ROLE ( 'creator' ) ;
#102 = EDGE_LOOP ( 'NONE', ( #241 ) ) ;
#103 = EDGE_CURVE ( 'NONE', #2, #2, #186, .T. ) ;
#104 = COORDINATED_UNIVERSAL_TIME_OFFSET ( 1, 0, .AHEAD. ) ;
#105 = FACE_OUTER_BOUND ( 'NONE', #266, .T. ) ;
#106 = CALENDAR_DATE ( 2021, 30, 11 ) ;
#107 = EDGE_LOOP ( 'NONE', ( #170 ) ) ;
#108 = CARTESIAN_POINT ( 'NONE',  ( 2.129803616694311221E-13, 8.998558695971049855E-33, 61.00000000000000000 ) ) ;
#109 = CARTESIAN_POINT ( 'NONE',  ( 2.119329172677781757E-13, -7.433606070824434221E-15, 60.69999999999999574 ) ) ;
#110 = LOCAL_TIME ( 10, 1, 44.00000000000000000, #80 ) ;
#111 = DIRECTION ( 'NONE',  ( -3.491481338843133355E-15, 1.224646799147353454E-16, -1.000000000000000000 ) ) ;
#112 = FACE_OUTER_BOUND ( 'NONE', #149, .T. ) ;
#113 = EDGE_CURVE ( 'NONE', #24, #24, #229, .T. ) ;
#114 = DIRECTION ( 'NONE',  ( 0.0000000000000000000, 1.000000000000000000, 0.0000000000000000000 ) ) ;
#115 = LOCAL_TIME ( 10, 1, 44.00000000000000000, #104 ) ;
#116 = FACE_OUTER_BOUND ( 'NONE', #107, .T. ) ;
#117 = CARTESIAN_POINT ( 'NONE',  ( 3.626641244514738240E-14, -1.272054512318357685E-15, 10.38711335549165149 ) ) ;
#118 = APPROVAL ( #74, 'UNSPECIFIED' ) ;
#119 = DIRECTION ( 'NONE',  ( 4.449587857652454859E-31, 1.000000000000000000, 1.252447638604742456E-16 ) ) ;
#120 = CARTESIAN_POINT ( 'NONE',  ( 7.885605607120420841E-14, 1.499999999999994005, 22.58527210038944233 ) ) ;
#121 = CARTESIAN_POINT ( 'NONE',  ( 3.626641244514738240E-14, 1.074999999999997513, 10.38711335549165149 ) ) ;
#122 = CARTESIAN_POINT ( 'NONE',  ( 3.626641244514738240E-14, -1.272054512318357685E-15, 10.38711335549165149 ) ) ;
#123 = DIRECTION ( 'NONE',  ( 3.491481338843133355E-15, -1.224646799147353454E-16, 1.000000000000000000 ) ) ;
#124 = CC_DESIGN_APPROVAL ( #118, ( #261 ) ) ;
#125 = PERSON_AND_ORGANIZATION ( #95, #301 ) ;
#126 = EDGE_LOOP ( 'NONE', ( #215 ) ) ;
#127 = DIRECTION ( 'NONE',  ( -3.491481338843133355E-15, 1.224646799147353454E-16, -1.000000000000000000 ) ) ;
#128 = DATE_TIME_ROLE ( 'classification_date' ) ;
#129 = ORIENTED_EDGE ( 'NONE', *, *, #240, .T. ) ;
#130 = PRODUCT_DEFINITION_SHAPE ( 'NONE', 'NONE',  #261 ) ;
#131 = CONICAL_SURFACE ( 'NONE', #255, 1.074999999999998845, 0.5235987755982930425 ) ;
#132 = PLANE ( 'NONE',  #36 ) ;
#133 = CC_DESIGN_PERSON_AND_ORGANIZATION_ASSIGNMENT ( #34, #153, ( #201 ) ) ;
#134 = CARTESIAN_POINT ( 'NONE',  ( 3.491481338843133355E-14, 9.737190388932096205E-33, 10.00000000000000000 ) ) ;
#135 = DIRECTION ( 'NONE',  ( 0.0000000000000000000, 1.000000000000000000, 0.0000000000000000000 ) ) ;
#136 = CARTESIAN_POINT ( 'NONE',  ( 0.0000000000000000000, 0.0000000000000000000, 0.0000000000000000000 ) ) ;
#137 = CYLINDRICAL_SURFACE ( 'NONE', #5, 1.499999999999999112 ) ;
#138 = DIRECTION ( 'NONE',  ( -3.491481338843133355E-15, 1.224646799147353454E-16, -1.000000000000000000 ) ) ;
#139 = EDGE_CURVE ( 'NONE', #1, #1, #182, .T. ) ;
#140 = CONICAL_SURFACE ( 'NONE', #48, 1.200000000000001510, 0.7853981633974453924 ) ;
#141 = LOCAL_TIME ( 10, 1, 44.00000000000000000, #267 ) ;
#142 = PERSON_AND_ORGANIZATION_ROLE ( 'design_owner' ) ;
#143 = CLOSED_SHELL ( 'NONE', ( #26, #264, #47, #184 ) ) ;
#144 = DIRECTION ( 'NONE',  ( 0.0000000000000000000, 1.000000000000000000, 0.0000000000000000000 ) ) ;
#145 = CARTESIAN_POINT ( 'NONE',  ( 2.119329172677781757E-13, 1.499999999999994005, 60.69999999999999574 ) ) ;
#146 = CC_DESIGN_APPROVAL ( #198, ( #246 ) ) ;
#147 = CARTESIAN_POINT ( 'NONE',  ( 0.0000000000000000000, 0.0000000000000000000, 0.0000000000000000000 ) ) ;
#148 = CALENDAR_DATE ( 2021, 30, 11 ) ;
#149 = EDGE_LOOP ( 'NONE', ( #30 ) ) ;
#150 = PRODUCT ( '971141', '971141', '', ( #257 ) ) ;
#151 = CALENDAR_DATE ( 2021, 30, 11 ) ;
#152 = EDGE_LOOP ( 'NONE', ( #214 ) ) ;
#153 = PERSON_AND_ORGANIZATION_ROLE ( 'design_supplier' ) ;
#154 = DIRECTION ( 'NONE',  ( 0.0000000000000000000, 1.000000000000000000, 0.0000000000000000000 ) ) ;
#155 = AXIS2_PLACEMENT_3D ( 'NONE', #61, #157, #178 ) ;
#156 = DIRECTION ( 'NONE',  ( -4.275831445896959482E-31, -1.000000000000000000, -1.224646799147353454E-16 ) ) ;
#157 = DIRECTION ( 'NONE',  ( -3.491481338843133355E-15, 1.224646799147353454E-16, -1.000000000000000000 ) ) ;
#158 = ADVANCED_FACE ( 'NONE', ( #112 ), #159, .F. ) ;
#159 = PLANE ( 'NONE',  #270 ) ;
#160 = CARTESIAN_POINT ( 'NONE',  ( 3.491481338843133355E-14, -1.224646799147353454E-15, 10.00000000000000000 ) ) ;
#161 = FACE_BOUND ( 'NONE', #102, .T. ) ;
#162 = VERTEX_POINT ( 'NONE', #209 ) ;
#163 =( GEOMETRIC_REPRESENTATION_CONTEXT ( 3 ) GLOBAL_UNCERTAINTY_ASSIGNED_CONTEXT ( ( #73 ) ) GLOBAL_UNIT_ASSIGNED_CONTEXT ( ( #94, #68, #259 ) ) REPRESENTATION_CONTEXT ( 'NONE', 'WORKASPACE' ) );
#164 = AXIS2_PLACEMENT_3D ( 'NONE', #181, #278, #156 ) ;
#165 = EDGE_CURVE ( 'NONE', #27, #27, #272, .T. ) ;
#166 = CIRCLE ( 'NONE', #59, 1.499999999999996669 ) ;
#167 = SHAPE_DEFINITION_REPRESENTATION ( #130, #290 ) ;
#168 = EDGE_CURVE ( 'NONE', #45, #45, #166, .T. ) ;
#169 = EDGE_LOOP ( 'NONE', ( #33 ) ) ;
#170 = ORIENTED_EDGE ( 'NONE', *, *, #240, .F. ) ;
#171 = DATE_AND_TIME ( #77, #22 ) ;
#172 = ORIENTED_EDGE ( 'NONE', *, *, #168, .T. ) ;
#173 = ORIENTED_EDGE ( 'NONE', *, *, #103, .T. ) ;
#174 = ORIENTED_EDGE ( 'NONE', *, *, #279, .T. ) ;
#175 = AXIS2_PLACEMENT_3D ( 'NONE', #147, #238, #63 ) ;
#176 = TOROIDAL_SURFACE ( 'NONE', #244, 3.075000000000000622, 2.000000000000000000 ) ;
#177 = FACE_OUTER_BOUND ( 'NONE', #126, .T. ) ;
#178 = DIRECTION ( 'NONE',  ( 0.0000000000000000000, 1.000000000000000000, 0.0000000000000000000 ) ) ;
#179 = PLANE ( 'NONE',  #164 ) ;
#180 = DIRECTION ( 'NONE',  ( 0.0000000000000000000, 1.000000000000000000, 0.0000000000000000000 ) ) ;
#181 = CARTESIAN_POINT ( 'NONE',  ( 3.491481338843133355E-14, 9.737190388932096205E-33, 10.00000000000000000 ) ) ;
#182 = CIRCLE ( 'NONE', #228, 1.200000000000001510 ) ;
#183 = DIRECTION ( 'NONE',  ( -3.491481338843133355E-15, 1.224646799147353454E-16, -1.000000000000000000 ) ) ;
#184 = ADVANCED_FACE ( 'NONE', ( #85 ), #179, .T. ) ;
#185 = CARTESIAN_POINT ( 'NONE',  ( 3.491481338843133355E-14, 1.298499999999998877, 10.00000000000000000 ) ) ;
#186 = CIRCLE ( 'NONE', #60, 1.500000000000001332 ) ;
#187 = VERTEX_POINT ( 'NONE', #185 ) ;
#188 = CC_DESIGN_SECURITY_CLASSIFICATION ( #246, ( #201 ) ) ;
#189 = ADVANCED_FACE ( 'NONE', ( #16, #200 ), #225, .T. ) ;
#190 = AXIS2_PLACEMENT_3D ( 'NONE', #203, #87, #277 ) ;
#191 = COORDINATED_UNIVERSAL_TIME_OFFSET ( 1, 0, .AHEAD. ) ;
#192 = FACE_OUTER_BOUND ( 'NONE', #268, .T. ) ;
#193 = ADVANCED_FACE ( 'NONE', ( #224, #221 ), #223, .T. ) ;
#194 = DATE_AND_TIME ( #31, #141 ) ;
#195 = EDGE_LOOP ( 'NONE', ( #12 ) ) ;
#196 = APPROVAL_DATE_TIME ( #234, #292 ) ;
#197 = ORIENTED_EDGE ( 'NONE', *, *, #17, .F. ) ;
#198 = APPROVAL ( #55, 'UNSPECIFIED' ) ;
#199 = DIRECTION ( 'NONE',  ( 4.275831445896959482E-31, 1.000000000000000000, 1.224646799147353454E-16 ) ) ;
#200 = FACE_OUTER_BOUND ( 'NONE', #271, .T. ) ;
#201 = PRODUCT_DEFINITION_FORMATION_WITH_SPECIFIED_SOURCE ( 'ANY', '', #150, .NOT_KNOWN. ) ;
#202 = FACE_BOUND ( 'NONE', #38, .T. ) ;
#203 = CARTESIAN_POINT ( 'NONE',  ( 6.982962677686266711E-14, -2.449293598294706907E-15, 20.00000000000000000 ) ) ;
#204 = AXIS2_PLACEMENT_3D ( 'NONE', #122, #207, #90 ) ;
#205 = DIRECTION ( 'NONE',  ( 4.275831445896959482E-31, 1.000000000000000000, 1.224646799147353454E-16 ) ) ;
#206 = DIRECTION ( 'NONE',  ( -3.491481338843133355E-15, 1.224646799147353454E-16, -1.000000000000000000 ) ) ;
#207 = DIRECTION ( 'NONE',  ( -3.491481338843133355E-15, 1.224646799147353454E-16, -1.000000000000000000 ) ) ;
#208 = VERTEX_POINT ( 'NONE', #93 ) ;
#209 = CARTESIAN_POINT ( 'NONE',  ( 8.728703347107835360E-16, 1.298499999999998877, 0.2500000000000000555 ) ) ;
#210 = EDGE_CURVE ( 'NONE', #187, #187, #37, .T. ) ;
#211 = CONICAL_SURFACE ( 'NONE', #52, 1.298499999999998877, 0.5235987755982923764 ) ;
#212 = DIRECTION ( 'NONE',  ( -4.275831445896959482E-31, -1.000000000000000000, -1.224646799147353454E-16 ) ) ;
#213 = PERSON_AND_ORGANIZATION ( #95, #301 ) ;
#214 = ORIENTED_EDGE ( 'NONE', *, *, #284, .T. ) ;
#215 = ORIENTED_EDGE ( 'NONE', *, *, #168, .F. ) ;
#216 = COORDINATED_UNIVERSAL_TIME_OFFSET ( 1, 0, .AHEAD. ) ;
#217 = ORIENTED_EDGE ( 'NONE', *, *, #139, .T. ) ;
#218 = AXIS2_PLACEMENT_3D ( 'NONE', #108, #6, #199 ) ;
#219 = CARTESIAN_POINT ( 'NONE',  ( -4.360237838094505053E-31, 1.529365559694752277E-32, -1.248821750695429677E-16 ) ) ;
#220 = ADVANCED_FACE ( 'NONE', ( #177, #249 ), #137, .T. ) ;
#221 = FACE_OUTER_BOUND ( 'NONE', #245, .T. ) ;
#222 = DIRECTION ( 'NONE',  ( -3.491481338843133355E-15, 1.224646799147353454E-16, -1.000000000000000000 ) ) ;
#223 = CONICAL_SURFACE ( 'NONE', #97, 1.499999999999996669, 0.1745329251994261199 ) ;
#224 = FACE_BOUND ( 'NONE', #243, .T. ) ;
#225 = CYLINDRICAL_SURFACE ( 'NONE', #70, 1.074999999999999512 ) ;
#226 = ADVANCED_FACE ( 'NONE', ( #18, #202 ), #140, .T. ) ;
#227 = DIRECTION ( 'NONE',  ( 3.491481338843133355E-15, -1.224646799147353454E-16, 1.000000000000000000 ) ) ;
#228 = AXIS2_PLACEMENT_3D ( 'NONE', #42, #89, #135 ) ;
#229 = CIRCLE ( 'NONE', #155, 1.298500000000000210 ) ;
#230 = APPLICATION_PROTOCOL_DEFINITION ( 'international standard', 'config_control_design', 1994, #32 ) ;
#231 = DIRECTION ( 'NONE',  ( 0.0000000000000000000, 0.0000000000000000000, 1.000000000000000000 ) ) ;
#232 = CARTESIAN_POINT ( 'NONE',  ( 3.491481338843133355E-14, 1.298499999999998877, 10.00000000000000000 ) ) ;
#233 = DIRECTION ( 'NONE',  ( 1.000000000000000000, 0.0000000000000000000, 0.0000000000000000000 ) ) ;
#234 = DATE_AND_TIME ( #148, #110 ) ;
#235 = EDGE_LOOP ( 'NONE', ( #54 ) ) ;
#236 = APPROVAL_PERSON_ORGANIZATION ( #237, #292, #269 ) ;
#237 = PERSON_AND_ORGANIZATION ( #95, #301 ) ;
#238 = DIRECTION ( 'NONE',  ( -3.491481338843133355E-15, 1.224646799147353454E-16, -1.000000000000000000 ) ) ;
#239 = PERSON_AND_ORGANIZATION_ROLE ( 'creator' ) ;
#240 = EDGE_CURVE ( 'NONE', #208, #208, #3, .T. ) ;
#241 = ORIENTED_EDGE ( 'NONE', *, *, #165, .F. ) ;
#242 = APPROVAL_ROLE ( '' ) ;
#243 = EDGE_LOOP ( 'NONE', ( #197 ) ) ;
#244 = AXIS2_PLACEMENT_3D ( 'NONE', #67, #183, #258 ) ;
#245 = EDGE_LOOP ( 'NONE', ( #172 ) ) ;
#246 = SECURITY_CLASSIFICATION ( '', '', #262 ) ;
#247 = MANIFOLD_SOLID_BREP ( 'Corps-Déplacer/Copier1[1]', #21 ) ;
#248 = CARTESIAN_POINT ( 'NONE',  ( -8.720475676189010106E-31, 3.058731119389504554E-32, -2.497643501390859353E-16 ) ) ;
#249 = FACE_OUTER_BOUND ( 'NONE', #100, .T. ) ;
#250 = CARTESIAN_POINT ( 'NONE',  ( 2.129803616694311221E-13, -7.470345474798856659E-15, 61.00000000000000000 ) ) ;
#251 = FACE_OUTER_BOUND ( 'NONE', #152, .T. ) ;
#252 = CC_DESIGN_DATE_AND_TIME_ASSIGNMENT ( #11, #53, ( #261 ) ) ;
#253 = MANIFOLD_SOLID_BREP ( 'Corps-Déplacer/Copier1[2]', #143 ) ;
#254 = CARTESIAN_POINT ( 'NONE',  ( 0.0000000000000000000, 0.0000000000000000000, 0.0000000000000000000 ) ) ;
#255 = AXIS2_PLACEMENT_3D ( 'NONE', #117, #206, #144 ) ;
#256 = AXIS2_PLACEMENT_3D ( 'NONE', #248, #222, #205 ) ;
#257 = MECHANICAL_CONTEXT ( 'NONE', #76, 'mechanical' ) ;
#258 = DIRECTION ( 'NONE',  ( 4.275831445896959482E-31, 1.000000000000000000, 1.224646799147353454E-16 ) ) ;
#259 =( NAMED_UNIT ( * ) SI_UNIT ( $, .STERADIAN. ) SOLID_ANGLE_UNIT ( ) );
#260 = APPLICATION_PROTOCOL_DEFINITION ( 'international standard', 'config_control_design', 1994, #76 ) ;
#261 = PRODUCT_DEFINITION ( 'UNKNOWN', '', #201, #286 ) ;
#262 = SECURITY_CLASSIFICATION_LEVEL ( 'unclassified' ) ;
#263 = FACE_OUTER_BOUND ( 'NONE', #169, .T. ) ;
#264 = ADVANCED_FACE ( 'NONE', ( #161, #251 ), #211, .T. ) ;
#265 = APPROVAL_STATUS ( 'not_yet_approved' ) ;
#266 = EDGE_LOOP ( 'NONE', ( #287 ) ) ;
#267 = COORDINATED_UNIVERSAL_TIME_OFFSET ( 1, 0, .AHEAD. ) ;
#268 = EDGE_LOOP ( 'NONE', ( #9 ) ) ;
#269 = APPROVAL_ROLE ( '' ) ;
#270 = AXIS2_PLACEMENT_3D ( 'NONE', #134, #64, #274 ) ;
#271 = EDGE_LOOP ( 'NONE', ( #129 ) ) ;
#272 = CIRCLE ( 'NONE', #256, 1.154162432702594554 ) ;
#273 = DIRECTION ( 'NONE',  ( 4.275831445896960358E-31, 1.000000000000000000, 1.224646799147353454E-16 ) ) ;
#274 = DIRECTION ( 'NONE',  ( -4.275831445896959482E-31, -1.000000000000000000, -1.224646799147353454E-16 ) ) ;
#275 = ADVANCED_FACE ( 'NONE', ( #116, #96 ), #176, .F. ) ;
#276 = CARTESIAN_POINT ( 'NONE',  ( 7.885605607120420841E-14, -2.765898118561395567E-15, 22.58527210038944233 ) ) ;
#277 = DIRECTION ( 'NONE',  ( 0.0000000000000000000, 1.000000000000000000, 0.0000000000000000000 ) ) ;
#278 = DIRECTION ( 'NONE',  ( 3.491481338843133355E-15, -1.224646799147353454E-16, 1.000000000000000000 ) ) ;
#279 = EDGE_CURVE ( 'NONE', #302, #302, #44, .T. ) ;
#280 = FACE_BOUND ( 'NONE', #75, .T. ) ;
#281 = CC_DESIGN_APPROVAL ( #292, ( #201 ) ) ;
#282 = CC_DESIGN_PERSON_AND_ORGANIZATION_ASSIGNMENT ( #65, #142, ( #150 ) ) ;
#283 = VERTEX_POINT ( 'NONE', #46 ) ;
#284 = EDGE_CURVE ( 'NONE', #162, #162, #82, .T. ) ;
#285 = AXIS2_PLACEMENT_3D ( 'NONE', #303, #69, #119 ) ;
#286 = DESIGN_CONTEXT ( 'detailed design', #32, 'design' ) ;
#287 = ORIENTED_EDGE ( 'NONE', *, *, #165, .T. ) ;
#288 = PRODUCT_RELATED_PRODUCT_CATEGORY ( 'detail', '', ( #150 ) ) ;
#289 = EDGE_LOOP ( 'NONE', ( #81 ) ) ;
#290 = ADVANCED_BREP_SHAPE_REPRESENTATION ( '971141', ( #247, #253, #295 ), #163 ) ;
#291 = ORIENTED_EDGE ( 'NONE', *, *, #17, .T. ) ;
#292 = APPROVAL ( #265, 'UNSPECIFIED' ) ;
#293 = EDGE_LOOP ( 'NONE', ( #8 ) ) ;
#294 = DIRECTION ( 'NONE',  ( 0.0000000000000000000, 1.000000000000000000, 0.0000000000000000000 ) ) ;
#295 = AXIS2_PLACEMENT_3D ( 'NONE', #254, #231, #233 ) ;
#296 = DIRECTION ( 'NONE',  ( 0.0000000000000000000, 1.000000000000000000, 0.0000000000000000000 ) ) ;
#297 = ADVANCED_FACE ( 'NONE', ( #91, #280 ), #131, .T. ) ;
#298 = DIRECTION ( 'NONE',  ( -3.491481338843133355E-15, 1.224646799147353454E-16, -1.000000000000000000 ) ) ;
#299 = CC_DESIGN_DATE_AND_TIME_ASSIGNMENT ( #29, #128, ( #246 ) ) ;
#300 = CARTESIAN_POINT ( 'NONE',  ( 7.885605607120420841E-14, -2.765898118561395567E-15, 22.58527210038944233 ) ) ;
#301 = ORGANIZATION ( 'UNSPECIFIED', 'UNSPECIFIED', '' ) ;
#302 = VERTEX_POINT ( 'NONE', #121 ) ;
#303 = CARTESIAN_POINT ( 'NONE',  ( 8.728703347107829444E-16, -3.061616997868382402E-17, 0.2499999999999998890 ) ) ;
ENDSEC;
END-ISO-10303-21;
