ISO-10303-21;
HEADER;
FILE_DESCRIPTION (( 'STEP AP203' ),
    '1' );
FILE_NAME ('970909.step',
    '2021-11-30T09:37:01',
    ( '' ),
    ( '' ),
    'SwSTEP 2.0',
    'SolidWorks 2019',
    '' );
FILE_SCHEMA (( 'CONFIG_CONTROL_DESIGN' ));
ENDSEC;

DATA;
#1 = DIRECTION ( 'NONE',  ( -4.275831445896959482E-31, -1.000000000000000000, -1.224646799147353454E-16 ) ) ;
#2 = CARTESIAN_POINT ( 'NONE',  ( 3.617570109905906359E-14, 1.099999999999996980, 10.36113259337811954 ) ) ;
#3 = ADVANCED_FACE ( 'NONE', ( #142, #278 ), #198, .T. ) ;
#4 = DIRECTION ( 'NONE',  ( -3.491481338843133355E-15, 1.224646799147353454E-16, -1.000000000000000000 ) ) ;
#5 = DESIGN_CONTEXT ( 'detailed design', #51, 'design' ) ;
#6 = FACE_OUTER_BOUND ( 'NONE', #137, .T. ) ;
#7 = CIRCLE ( 'NONE', #260, 1.130384493975580718 ) ;
#8 = ADVANCED_FACE ( 'NONE', ( #65, #167 ), #202, .T. ) ;
#9 = FACE_BOUND ( 'NONE', #246, .T. ) ;
#10 = PERSON_AND_ORGANIZATION_ROLE ( 'creator' ) ;
#11 = CIRCLE ( 'NONE', #53, 1.099999999999999867 ) ;
#12 = CIRCLE ( 'NONE', #209, 1.164162432702594341 ) ;
#13 = LOCAL_TIME ( 10, 37, 1.000000000000000000, #207 ) ;
#14 = CARTESIAN_POINT ( 'NONE',  ( 8.728703347107833388E-14, 1.099999999999996758, 25.00000000000000000 ) ) ;
#15 = EDGE_LOOP ( 'NONE', ( #110 ) ) ;
#16 = CIRCLE ( 'NONE', #173, 1.200000000000001510 ) ;
#17 = APPROVAL ( #258, 'UNSPECIFIED' ) ;
#18 = MANIFOLD_SOLID_BREP ( 'Corps-Déplacer/Copier1[2]', #120 ) ;
#19 = CARTESIAN_POINT ( 'NONE',  ( 9.581843339940695354E-14, -3.360858225316427759E-15, 27.44349005489899085 ) ) ;
#20 = CIRCLE ( 'NONE', #144, 1.099999999999998312 ) ;
#21 = DIRECTION ( 'NONE',  ( 3.491481338843133355E-15, -1.224646799147353454E-16, 1.000000000000000000 ) ) ;
#22 = ORIENTED_EDGE ( 'NONE', *, *, #277, .F. ) ;
#23 = PLANE ( 'NONE',  #154 ) ;
#24 = AXIS2_PLACEMENT_3D ( 'NONE', #127, #21, #1 ) ;
#25 = EDGE_CURVE ( 'NONE', #195, #195, #20, .T. ) ;
#26 = VERTEX_POINT ( 'NONE', #52 ) ;
#27 = CARTESIAN_POINT ( 'NONE',  ( 8.728703347107833388E-14, -3.035766082959412415E-15, 25.00000000000000000 ) ) ;
#28 = CARTESIAN_POINT ( 'NONE',  ( 8.728703347107827472E-16, -3.061616997868381785E-17, 0.2499999999999998335 ) ) ;
#29 = CARTESIAN_POINT ( 'NONE',  ( 2.119329172677781757E-13, -7.433606070824434221E-15, 60.69999999999999574 ) ) ;
#30 = ADVANCED_FACE ( 'NONE', ( #64, #191 ), #171, .T. ) ;
#31 = SECURITY_CLASSIFICATION ( '', '', #88 ) ;
#32 = EDGE_LOOP ( 'NONE', ( #116 ) ) ;
#33 = PERSON_AND_ORGANIZATION ( #262, #254 ) ;
#34 = EDGE_LOOP ( 'NONE', ( #251 ) ) ;
#35 = APPROVAL ( #272, 'UNSPECIFIED' ) ;
#36 = ORIENTED_EDGE ( 'NONE', *, *, #277, .T. ) ;
#37 = TOROIDAL_SURFACE ( 'NONE', #217, 3.100000000000000089, 2.000000000000000000 ) ;
#38 = CC_DESIGN_APPROVAL ( #17, ( #31 ) ) ;
#39 = FACE_OUTER_BOUND ( 'NONE', #159, .T. ) ;
#40 = DATE_TIME_ROLE ( 'classification_date' ) ;
#41 = DIRECTION ( 'NONE',  ( -3.491481338843133355E-15, 1.224646799147353454E-16, -1.000000000000000000 ) ) ;
#42 = AXIS2_PLACEMENT_3D ( 'NONE', #131, #267, #55 ) ;
#43 = APPROVAL_PERSON_ORGANIZATION ( #275, #17, #298 ) ;
#44 = ORIENTED_EDGE ( 'NONE', *, *, #124, .F. ) ;
#45 = DIRECTION ( 'NONE',  ( 0.0000000000000000000, 1.000000000000000000, 0.0000000000000000000 ) ) ;
#46 = PRODUCT ( '970909', '970909', '', ( #62 ) ) ;
#47 = CARTESIAN_POINT ( 'NONE',  ( 0.0000000000000000000, 0.0000000000000000000, 0.0000000000000000000 ) ) ;
#48 = DIRECTION ( 'NONE',  ( -3.491481338843133355E-15, 1.224646799147353454E-16, -1.000000000000000000 ) ) ;
#49 = CARTESIAN_POINT ( 'NONE',  ( 0.0000000000000000000, 0.0000000000000000000, 0.0000000000000000000 ) ) ;
#50 = PLANE ( 'NONE',  #106 ) ;
#51 = APPLICATION_CONTEXT ( 'configuration controlled 3d designs of mechanical parts and assemblies' ) ;
#52 = CARTESIAN_POINT ( 'NONE',  ( 3.491481338843133355E-14, 1.308499999999998664, 10.00000000000000000 ) ) ;
#53 = AXIS2_PLACEMENT_3D ( 'NONE', #103, #155, #285 ) ;
#54 = LOCAL_TIME ( 10, 37, 1.000000000000000000, #83 ) ;
#55 = DIRECTION ( 'NONE',  ( 4.415582600811397621E-31, 1.000000000000000000, 1.242876009727365995E-16 ) ) ;
#56 = EDGE_LOOP ( 'NONE', ( #162 ) ) ;
#57 = EDGE_LOOP ( 'NONE', ( #203 ) ) ;
#58 = AXIS2_PLACEMENT_3D ( 'NONE', #303, #281, #69 ) ;
#59 = APPROVAL_DATE_TIME ( #250, #168 ) ;
#60 = ORIENTED_EDGE ( 'NONE', *, *, #61, .F. ) ;
#61 = EDGE_CURVE ( 'NONE', #196, #196, #16, .T. ) ;
#62 = MECHANICAL_CONTEXT ( 'NONE', #241, 'mechanical' ) ;
#63 = AXIS2_PLACEMENT_3D ( 'NONE', #300, #187, #211 ) ;
#64 = FACE_OUTER_BOUND ( 'NONE', #166, .T. ) ;
#65 = FACE_OUTER_BOUND ( 'NONE', #182, .T. ) ;
#66 = CC_DESIGN_APPROVAL ( #168, ( #247 ) ) ;
#67 = DIRECTION ( 'NONE',  ( 3.491481338843133355E-15, -1.224646799147353454E-16, 1.000000000000000000 ) ) ;
#68 = CC_DESIGN_DATE_AND_TIME_ASSIGNMENT ( #243, #40, ( #31 ) ) ;
#69 = DIRECTION ( 'NONE',  ( 4.275831445896959482E-31, 1.000000000000000000, 1.224646799147353700E-16 ) ) ;
#70 = UNCERTAINTY_MEASURE_WITH_UNIT (LENGTH_MEASURE( 1.000000000000000082E-05 ), #184, 'distance_accuracy_value', 'NONE');
#71 = DIRECTION ( 'NONE',  ( 0.0000000000000000000, 1.000000000000000000, 0.0000000000000000000 ) ) ;
#72 = CONICAL_SURFACE ( 'NONE', #130, 1.099999999999998312, 0.5235987755982922653 ) ;
#73 = DIRECTION ( 'NONE',  ( -3.491481338843133355E-15, 1.224646799147353454E-16, -1.000000000000000000 ) ) ;
#74 = EDGE_CURVE ( 'NONE', #76, #76, #7, .T. ) ;
#75 = CARTESIAN_POINT ( 'NONE',  ( 9.581843339940695354E-14, 1.499999999999992673, 27.44349005489899085 ) ) ;
#76 = VERTEX_POINT ( 'NONE', #265 ) ;
#77 = VERTEX_POINT ( 'NONE', #75 ) ;
#78 = AXIS2_PLACEMENT_3D ( 'NONE', #175, #48, #194 ) ;
#79 = ADVANCED_BREP_SHAPE_REPRESENTATION ( '970909', ( #135, #18, #121 ), #245 ) ;
#80 = ADVANCED_FACE ( 'NONE', ( #231 ), #230, .F. ) ;
#81 = PERSON_AND_ORGANIZATION_ROLE ( 'classification_officer' ) ;
#82 = EDGE_LOOP ( 'NONE', ( #244 ) ) ;
#83 = COORDINATED_UNIVERSAL_TIME_OFFSET ( 1, 0, .AHEAD. ) ;
#84 = CARTESIAN_POINT ( 'NONE',  ( 3.491481338843133355E-14, 1.308499999999998664, 10.00000000000000000 ) ) ;
#85 = EDGE_LOOP ( 'NONE', ( #60 ) ) ;
#86 = ADVANCED_FACE ( 'NONE', ( #39 ), #123, .T. ) ;
#87 = ORIENTED_EDGE ( 'NONE', *, *, #269, .F. ) ;
#88 = SECURITY_CLASSIFICATION_LEVEL ( 'unclassified' ) ;
#89 = ORIENTED_EDGE ( 'NONE', *, *, #269, .T. ) ;
#90 = DIRECTION ( 'NONE',  ( -3.491481338843133355E-15, 1.224646799147353454E-16, -1.000000000000000000 ) ) ;
#91 = ADVANCED_FACE ( 'NONE', ( #125, #210 ), #228, .T. ) ;
#92 = DIRECTION ( 'NONE',  ( 4.275831445896959482E-31, 1.000000000000000000, 1.224646799147353454E-16 ) ) ;
#93 = CARTESIAN_POINT ( 'NONE',  ( 8.849961221477469775E-14, -3.104148534859897544E-15, 25.34729635533384595 ) ) ;
#94 = DIRECTION ( 'NONE',  ( 4.275831445896959482E-31, 1.000000000000000000, 1.224646799147353454E-16 ) ) ;
#95 = CC_DESIGN_DATE_AND_TIME_ASSIGNMENT ( #115, #105, ( #247 ) ) ;
#96 = AXIS2_PLACEMENT_3D ( 'NONE', #29, #4, #99 ) ;
#97 = LOCAL_TIME ( 10, 37, 1.000000000000000000, #134 ) ;
#98 = CARTESIAN_POINT ( 'NONE',  ( 2.119329172677781757E-13, 1.499999999999994005, 60.69999999999999574 ) ) ;
#99 = DIRECTION ( 'NONE',  ( 0.0000000000000000000, 1.000000000000000000, 0.0000000000000000000 ) ) ;
#100 = DIRECTION ( 'NONE',  ( -4.275831445896959482E-31, -1.000000000000000000, -1.224646799147353454E-16 ) ) ;
#101 = LOCAL_TIME ( 10, 37, 1.000000000000000000, #288 ) ;
#102 = CARTESIAN_POINT ( 'NONE',  ( 3.617570109905906359E-14, -1.268872786602183144E-15, 10.36113259337811954 ) ) ;
#103 = CARTESIAN_POINT ( 'NONE',  ( 8.728703347107833388E-14, -3.061616997868383831E-15, 25.00000000000000000 ) ) ;
#104 = EDGE_CURVE ( 'NONE', #77, #77, #279, .T. ) ;
#105 = DATE_TIME_ROLE ( 'creation_date' ) ;
#106 = AXIS2_PLACEMENT_3D ( 'NONE', #176, #152, #100 ) ;
#107 = PERSON_AND_ORGANIZATION_ROLE ( 'design_owner' ) ;
#108 = VERTEX_POINT ( 'NONE', #84 ) ;
#109 = ADVANCED_FACE ( 'NONE', ( #119 ), #23, .F. ) ;
#110 = ORIENTED_EDGE ( 'NONE', *, *, #74, .T. ) ;
#111 = CALENDAR_DATE ( 2021, 30, 11 ) ;
#112 = ORIENTED_EDGE ( 'NONE', *, *, #25, .F. ) ;
#113 = AXIS2_PLACEMENT_3D ( 'NONE', #47, #255, #94 ) ;
#114 = APPROVAL_PERSON_ORGANIZATION ( #160, #35, #157 ) ;
#115 = DATE_AND_TIME ( #180, #97 ) ;
#116 = ORIENTED_EDGE ( 'NONE', *, *, #145, .F. ) ;
#117 = EDGE_LOOP ( 'NONE', ( #178 ) ) ;
#118 = ADVANCED_FACE ( 'NONE', ( #186 ), #50, .F. ) ;
#119 = FACE_OUTER_BOUND ( 'NONE', #85, .T. ) ;
#120 = CLOSED_SHELL ( 'NONE', ( #80, #256, #91, #86 ) ) ;
#121 = AXIS2_PLACEMENT_3D ( 'NONE', #252, #221, #226 ) ;
#122 = DIRECTION ( 'NONE',  ( -3.491481338843133355E-15, 1.224646799147353454E-16, -1.000000000000000000 ) ) ;
#123 = PLANE ( 'NONE',  #63 ) ;
#124 = EDGE_CURVE ( 'NONE', #240, #240, #189, .T. ) ;
#125 = FACE_OUTER_BOUND ( 'NONE', #32, .T. ) ;
#126 = LOCAL_TIME ( 10, 37, 1.000000000000000000, #177 ) ;
#127 = CARTESIAN_POINT ( 'NONE',  ( -4.381616995323988891E-31, 1.536864358608061346E-32, -1.254944984691166306E-16 ) ) ;
#128 = VERTEX_POINT ( 'NONE', #214 ) ;
#129 = DIRECTION ( 'NONE',  ( -3.491481338843133355E-15, 1.224646799147353454E-16, -1.000000000000000000 ) ) ;
#130 = AXIS2_PLACEMENT_3D ( 'NONE', #102, #156, #71 ) ;
#131 = CARTESIAN_POINT ( 'NONE',  ( 8.728703347107827472E-16, -3.061616997868381785E-17, 0.2499999999999998335 ) ) ;
#132 = FACE_OUTER_BOUND ( 'NONE', #270, .T. ) ;
#133 = CC_DESIGN_PERSON_AND_ORGANIZATION_ASSIGNMENT ( #163, #81, ( #31 ) ) ;
#134 = COORDINATED_UNIVERSAL_TIME_OFFSET ( 1, 0, .AHEAD. ) ;
#135 = MANIFOLD_SOLID_BREP ( 'Corps-Déplacer/Copier1[1]', #234 ) ;
#136 = APPLICATION_PROTOCOL_DEFINITION ( 'international standard', 'config_control_design', 1994, #241 ) ;
#137 = EDGE_LOOP ( 'NONE', ( #227 ) ) ;
#138 = PERSON_AND_ORGANIZATION_ROLE ( 'creator' ) ;
#139 = ORIENTED_EDGE ( 'NONE', *, *, #124, .T. ) ;
#140 =( NAMED_UNIT ( * ) PLANE_ANGLE_UNIT ( ) SI_UNIT ( $, .RADIAN. ) );
#141 = SHAPE_DEFINITION_REPRESENTATION ( #236, #79 ) ;
#142 = FACE_BOUND ( 'NONE', #225, .T. ) ;
#143 = CARTESIAN_POINT ( 'NONE',  ( 9.581843339940695354E-14, -3.360858225316427759E-15, 27.44349005489899085 ) ) ;
#144 = AXIS2_PLACEMENT_3D ( 'NONE', #212, #41, #146 ) ;
#145 = EDGE_CURVE ( 'NONE', #193, #193, #185, .T. ) ;
#146 = DIRECTION ( 'NONE',  ( 0.0000000000000000000, 1.000000000000000000, 0.0000000000000000000 ) ) ;
#147 = DIRECTION ( 'NONE',  ( 0.0000000000000000000, 1.000000000000000000, 0.0000000000000000000 ) ) ;
#148 = DIRECTION ( 'NONE',  ( 0.0000000000000000000, 1.000000000000000000, 0.0000000000000000000 ) ) ;
#149 = AXIS2_PLACEMENT_3D ( 'NONE', #28, #282, #237 ) ;
#150 = CONICAL_SURFACE ( 'NONE', #149, 1.308499999999998664, 0.5235987755982924874 ) ;
#151 = DIRECTION ( 'NONE',  ( -3.491481338843133355E-15, 1.224646799147353454E-16, -1.000000000000000000 ) ) ;
#152 = DIRECTION ( 'NONE',  ( 3.491481338843133355E-15, -1.224646799147353454E-16, 1.000000000000000000 ) ) ;
#153 = FACE_OUTER_BOUND ( 'NONE', #276, .T. ) ;
#154 = AXIS2_PLACEMENT_3D ( 'NONE', #299, #90, #92 ) ;
#155 = DIRECTION ( 'NONE',  ( -3.491481338843133355E-15, 1.224646799147353454E-16, -1.000000000000000000 ) ) ;
#156 = DIRECTION ( 'NONE',  ( -3.491481338843133355E-15, 1.224646799147353454E-16, -1.000000000000000000 ) ) ;
#157 = APPROVAL_ROLE ( '' ) ;
#158 = EDGE_LOOP ( 'NONE', ( #200 ) ) ;
#159 = EDGE_LOOP ( 'NONE', ( #87 ) ) ;
#160 = PERSON_AND_ORGANIZATION ( #262, #254 ) ;
#161 = ORIENTED_EDGE ( 'NONE', *, *, #164, .F. ) ;
#162 = ORIENTED_EDGE ( 'NONE', *, *, #215, .T. ) ;
#163 = PERSON_AND_ORGANIZATION ( #262, #254 ) ;
#164 = EDGE_CURVE ( 'NONE', #26, #26, #229, .T. ) ;
#165 = AXIS2_PLACEMENT_3D ( 'NONE', #274, #259, #45 ) ;
#166 = EDGE_LOOP ( 'NONE', ( #112 ) ) ;
#167 = FACE_BOUND ( 'NONE', #82, .T. ) ;
#168 = APPROVAL ( #222, 'UNSPECIFIED' ) ;
#169 = AXIS2_PLACEMENT_3D ( 'NONE', #143, #67, #208 ) ;
#170 = APPROVAL_DATE_TIME ( #190, #17 ) ;
#171 = CYLINDRICAL_SURFACE ( 'NONE', #113, 1.099999999999998979 ) ;
#172 = FACE_BOUND ( 'NONE', #57, .T. ) ;
#173 = AXIS2_PLACEMENT_3D ( 'NONE', #257, #122, #301 ) ;
#174 = CARTESIAN_POINT ( 'NONE',  ( -8.763233990647977782E-31, 3.073728717216122692E-32, -2.509889969382332612E-16 ) ) ;
#175 = CARTESIAN_POINT ( 'NONE',  ( 3.491481338843133355E-14, -1.224646799147353454E-15, 10.00000000000000000 ) ) ;
#176 = CARTESIAN_POINT ( 'NONE',  ( 3.491481338843133355E-14, 9.812178378065188264E-33, 10.00000000000000000 ) ) ;
#177 = COORDINATED_UNIVERSAL_TIME_OFFSET ( 1, 0, .AHEAD. ) ;
#178 = ORIENTED_EDGE ( 'NONE', *, *, #104, .T. ) ;
#179 = PERSON_AND_ORGANIZATION ( #262, #254 ) ;
#180 = CALENDAR_DATE ( 2021, 30, 11 ) ;
#181 = AXIS2_PLACEMENT_3D ( 'NONE', #19, #261, #148 ) ;
#182 = EDGE_LOOP ( 'NONE', ( #44 ) ) ;
#183 = ORIENTED_EDGE ( 'NONE', *, *, #74, .F. ) ;
#184 =( LENGTH_UNIT ( ) NAMED_UNIT ( * ) SI_UNIT ( .MILLI., .METRE. ) );
#185 = CIRCLE ( 'NONE', #42, 1.308499999999998664 ) ;
#186 = FACE_OUTER_BOUND ( 'NONE', #158, .T. ) ;
#187 = DIRECTION ( 'NONE',  ( 3.491481338843133355E-15, -1.224646799147353454E-16, 1.000000000000000000 ) ) ;
#188 = CALENDAR_DATE ( 2021, 30, 11 ) ;
#189 = CIRCLE ( 'NONE', #96, 1.500000000000001332 ) ;
#190 = DATE_AND_TIME ( #188, #13 ) ;
#191 = FACE_OUTER_BOUND ( 'NONE', #249, .T. ) ;
#192 = ADVANCED_FACE ( 'NONE', ( #132, #218 ), #37, .F. ) ;
#193 = VERTEX_POINT ( 'NONE', #235 ) ;
#194 = DIRECTION ( 'NONE',  ( 0.0000000000000000000, 1.000000000000000000, 0.0000000000000000000 ) ) ;
#195 = VERTEX_POINT ( 'NONE', #2 ) ;
#196 = VERTEX_POINT ( 'NONE', #284 ) ;
#197 = FACE_OUTER_BOUND ( 'NONE', #206, .T. ) ;
#198 = CONICAL_SURFACE ( 'NONE', #169, 1.499999999999996003, 0.1745329251994264530 ) ;
#199 = PERSON_AND_ORGANIZATION ( #262, #254 ) ;
#200 = ORIENTED_EDGE ( 'NONE', *, *, #164, .T. ) ;
#201 =( NAMED_UNIT ( * ) SI_UNIT ( $, .STERADIAN. ) SOLID_ANGLE_UNIT ( ) );
#202 = CONICAL_SURFACE ( 'NONE', #165, 1.200000000000001510, 0.7853981633974453924 ) ;
#203 = ORIENTED_EDGE ( 'NONE', *, *, #215, .F. ) ;
#204 = CC_DESIGN_PERSON_AND_ORGANIZATION_ASSIGNMENT ( #179, #10, ( #247 ) ) ;
#205 = DATE_AND_TIME ( #111, #101 ) ;
#206 = EDGE_LOOP ( 'NONE', ( #139 ) ) ;
#207 = COORDINATED_UNIVERSAL_TIME_OFFSET ( 1, 0, .AHEAD. ) ;
#208 = DIRECTION ( 'NONE',  ( 0.0000000000000000000, -1.000000000000000000, 0.0000000000000000000 ) ) ;
#209 = AXIS2_PLACEMENT_3D ( 'NONE', #174, #219, #264 ) ;
#210 = FACE_OUTER_BOUND ( 'NONE', #297, .T. ) ;
#211 = DIRECTION ( 'NONE',  ( -4.275831445896959482E-31, -1.000000000000000000, -1.224646799147353454E-16 ) ) ;
#212 = CARTESIAN_POINT ( 'NONE',  ( 3.617570109905906359E-14, -1.268872786602183144E-15, 10.36113259337811954 ) ) ;
#213 = CYLINDRICAL_SURFACE ( 'NONE', #253, 1.499999999999998668 ) ;
#214 = CARTESIAN_POINT ( 'NONE',  ( -3.785471652766322713E-31, 1.164162432702594341, -1.084202172485504187E-16 ) ) ;
#215 = EDGE_CURVE ( 'NONE', #128, #128, #12, .T. ) ;
#216 = DIRECTION ( 'NONE',  ( 0.0000000000000000000, 1.000000000000000000, 0.0000000000000000000 ) ) ;
#217 = AXIS2_PLACEMENT_3D ( 'NONE', #27, #73, #263 ) ;
#218 = FACE_OUTER_BOUND ( 'NONE', #15, .T. ) ;
#219 = DIRECTION ( 'NONE',  ( -3.491481338843133355E-15, 1.224646799147353454E-16, -1.000000000000000000 ) ) ;
#220 = PERSON_AND_ORGANIZATION ( #262, #254 ) ;
#221 = DIRECTION ( 'NONE',  ( 0.0000000000000000000, 0.0000000000000000000, 1.000000000000000000 ) ) ;
#222 = APPROVAL_STATUS ( 'not_yet_approved' ) ;
#223 = PERSON_AND_ORGANIZATION_ROLE ( 'design_supplier' ) ;
#224 = ADVANCED_FACE ( 'NONE', ( #153, #9 ), #72, .T. ) ;
#225 = EDGE_LOOP ( 'NONE', ( #183 ) ) ;
#226 = DIRECTION ( 'NONE',  ( 1.000000000000000000, 0.0000000000000000000, 0.0000000000000000000 ) ) ;
#227 = ORIENTED_EDGE ( 'NONE', *, *, #104, .F. ) ;
#228 = CYLINDRICAL_SURFACE ( 'NONE', #58, 1.308499999999999330 ) ;
#229 = CIRCLE ( 'NONE', #78, 1.308499999999999996 ) ;
#230 = PLANE ( 'NONE',  #24 ) ;
#231 = FACE_OUTER_BOUND ( 'NONE', #56, .T. ) ;
#232 = CC_DESIGN_PERSON_AND_ORGANIZATION_ASSIGNMENT ( #220, #223, ( #283 ) ) ;
#233 = DIRECTION ( 'NONE',  ( -3.491481338843133355E-15, 1.224646799147353454E-16, -1.000000000000000000 ) ) ;
#234 = CLOSED_SHELL ( 'NONE', ( #118, #224, #30, #192, #3, #302, #8, #109 ) ) ;
#235 = CARTESIAN_POINT ( 'NONE',  ( 8.728703347107833388E-16, 1.308499999999998664, 0.2500000000000000000 ) ) ;
#236 = PRODUCT_DEFINITION_SHAPE ( 'NONE', 'NONE',  #247 ) ;
#237 = DIRECTION ( 'NONE',  ( -4.415582600811397621E-31, -1.000000000000000000, -1.242876009727365995E-16 ) ) ;
#238 = FACE_OUTER_BOUND ( 'NONE', #34, .T. ) ;
#239 = CC_DESIGN_SECURITY_CLASSIFICATION ( #31, ( #283 ) ) ;
#240 = VERTEX_POINT ( 'NONE', #98 ) ;
#241 = APPLICATION_CONTEXT ( 'configuration controlled 3d designs of mechanical parts and assemblies' ) ;
#242 = CARTESIAN_POINT ( 'NONE',  ( 3.491481338843133355E-14, -1.224646799147353454E-15, 10.00000000000000000 ) ) ;
#243 = DATE_AND_TIME ( #268, #126 ) ;
#244 = ORIENTED_EDGE ( 'NONE', *, *, #61, .T. ) ;
#245 =( GEOMETRIC_REPRESENTATION_CONTEXT ( 3 ) GLOBAL_UNCERTAINTY_ASSIGNED_CONTEXT ( ( #70 ) ) GLOBAL_UNIT_ASSIGNED_CONTEXT ( ( #184, #140, #201 ) ) REPRESENTATION_CONTEXT ( 'NONE', 'WORKASPACE' ) );
#246 = EDGE_LOOP ( 'NONE', ( #292 ) ) ;
#247 = PRODUCT_DEFINITION ( 'UNKNOWN', '', #283, #5 ) ;
#248 = APPLICATION_PROTOCOL_DEFINITION ( 'international standard', 'config_control_design', 1994, #51 ) ;
#249 = EDGE_LOOP ( 'NONE', ( #36 ) ) ;
#250 = DATE_AND_TIME ( #291, #54 ) ;
#251 = ORIENTED_EDGE ( 'NONE', *, *, #145, .T. ) ;
#252 = CARTESIAN_POINT ( 'NONE',  ( 0.0000000000000000000, 0.0000000000000000000, 0.0000000000000000000 ) ) ;
#253 = AXIS2_PLACEMENT_3D ( 'NONE', #49, #151, #287 ) ;
#254 = ORGANIZATION ( 'UNSPECIFIED', 'UNSPECIFIED', '' ) ;
#255 = DIRECTION ( 'NONE',  ( -3.491481338843133355E-15, 1.224646799147353454E-16, -1.000000000000000000 ) ) ;
#256 = ADVANCED_FACE ( 'NONE', ( #172, #238 ), #150, .T. ) ;
#257 = CARTESIAN_POINT ( 'NONE',  ( 2.129803616694311221E-13, -7.470345474798856659E-15, 61.00000000000000000 ) ) ;
#258 = APPROVAL_STATUS ( 'not_yet_approved' ) ;
#259 = DIRECTION ( 'NONE',  ( -3.491481338843133355E-15, 1.224646799147353454E-16, -1.000000000000000000 ) ) ;
#260 = AXIS2_PLACEMENT_3D ( 'NONE', #93, #233, #147 ) ;
#261 = DIRECTION ( 'NONE',  ( -3.491481338843133355E-15, 1.224646799147353454E-16, -1.000000000000000000 ) ) ;
#262 = PERSON ( 'UNSPECIFIED', 'UNSPECIFIED', 'UNSPECIFIED', ('UNSPECIFIED'), ('UNSPECIFIED'), ('UNSPECIFIED') ) ;
#263 = DIRECTION ( 'NONE',  ( 4.275831445896960358E-31, 1.000000000000000000, 1.224646799147353454E-16 ) ) ;
#264 = DIRECTION ( 'NONE',  ( 4.275831445896959482E-31, 1.000000000000000000, 1.224646799147353454E-16 ) ) ;
#265 = CARTESIAN_POINT ( 'NONE',  ( 8.849961221477469775E-14, 1.130384493975577831, 25.34729635533384595 ) ) ;
#266 = PRODUCT_RELATED_PRODUCT_CATEGORY ( 'detail', '', ( #46 ) ) ;
#267 = DIRECTION ( 'NONE',  ( -3.491481338843133355E-15, 1.224646799147353454E-16, -1.000000000000000000 ) ) ;
#268 = CALENDAR_DATE ( 2021, 30, 11 ) ;
#269 = EDGE_CURVE ( 'NONE', #108, #108, #293, .T. ) ;
#270 = EDGE_LOOP ( 'NONE', ( #22 ) ) ;
#271 = APPROVAL_ROLE ( '' ) ;
#272 = APPROVAL_STATUS ( 'not_yet_approved' ) ;
#273 = AXIS2_PLACEMENT_3D ( 'NONE', #242, #129, #216 ) ;
#274 = CARTESIAN_POINT ( 'NONE',  ( 2.129803616694311221E-13, -7.470345474798856659E-15, 61.00000000000000000 ) ) ;
#275 = PERSON_AND_ORGANIZATION ( #262, #254 ) ;
#276 = EDGE_LOOP ( 'NONE', ( #161 ) ) ;
#277 = EDGE_CURVE ( 'NONE', #295, #295, #11, .T. ) ;
#278 = FACE_OUTER_BOUND ( 'NONE', #117, .T. ) ;
#279 = CIRCLE ( 'NONE', #181, 1.499999999999996003 ) ;
#280 = CC_DESIGN_APPROVAL ( #35, ( #283 ) ) ;
#281 = DIRECTION ( 'NONE',  ( -3.491481338843133355E-15, 1.224646799147353454E-16, -1.000000000000000000 ) ) ;
#282 = DIRECTION ( 'NONE',  ( 3.491481338843133355E-15, -1.224646799147353454E-16, 1.000000000000000000 ) ) ;
#283 = PRODUCT_DEFINITION_FORMATION_WITH_SPECIFIED_SOURCE ( 'ANY', '', #46, .NOT_KNOWN. ) ;
#284 = CARTESIAN_POINT ( 'NONE',  ( 2.129803616694311221E-13, 1.199999999999993960, 61.00000000000000000 ) ) ;
#285 = DIRECTION ( 'NONE',  ( 0.0000000000000000000, 1.000000000000000000, 0.0000000000000000000 ) ) ;
#286 = CC_DESIGN_PERSON_AND_ORGANIZATION_ASSIGNMENT ( #33, #138, ( #283 ) ) ;
#287 = DIRECTION ( 'NONE',  ( 4.275831445896960358E-31, 1.000000000000000000, 1.224646799147353454E-16 ) ) ;
#288 = COORDINATED_UNIVERSAL_TIME_OFFSET ( 1, 0, .AHEAD. ) ;
#289 = PERSON_AND_ORGANIZATION ( #262, #254 ) ;
#290 = CC_DESIGN_PERSON_AND_ORGANIZATION_ASSIGNMENT ( #289, #107, ( #46 ) ) ;
#291 = CALENDAR_DATE ( 2021, 30, 11 ) ;
#292 = ORIENTED_EDGE ( 'NONE', *, *, #25, .T. ) ;
#293 = CIRCLE ( 'NONE', #273, 1.308499999999999996 ) ;
#294 = APPROVAL_PERSON_ORGANIZATION ( #199, #168, #271 ) ;
#295 = VERTEX_POINT ( 'NONE', #14 ) ;
#296 = APPROVAL_DATE_TIME ( #205, #35 ) ;
#297 = EDGE_LOOP ( 'NONE', ( #89 ) ) ;
#298 = APPROVAL_ROLE ( '' ) ;
#299 = CARTESIAN_POINT ( 'NONE',  ( 2.129803616694311221E-13, 8.998558695971049855E-33, 61.00000000000000000 ) ) ;
#300 = CARTESIAN_POINT ( 'NONE',  ( 3.491481338843133355E-14, 9.812178378065188264E-33, 10.00000000000000000 ) ) ;
#301 = DIRECTION ( 'NONE',  ( 0.0000000000000000000, 1.000000000000000000, 0.0000000000000000000 ) ) ;
#302 = ADVANCED_FACE ( 'NONE', ( #6, #197 ), #213, .T. ) ;
#303 = CARTESIAN_POINT ( 'NONE',  ( 0.0000000000000000000, 0.0000000000000000000, 0.0000000000000000000 ) ) ;
ENDSEC;
END-ISO-10303-21;
