ISO-10303-21;
HEADER;
FILE_DESCRIPTION (( 'STEP AP203' ),
    '1' );
FILE_NAME ('970907.step',
    '2021-12-17T10:59:30',
    ( '' ),
    ( '' ),
    'SwSTEP 2.0',
    'SolidWorks 2019',
    '' );
FILE_SCHEMA (( 'CONFIG_CONTROL_DESIGN' ));
ENDSEC;

DATA;
#1 = COORDINATED_UNIVERSAL_TIME_OFFSET ( 1, 0, .AHEAD. ) ;
#2 = DIRECTION ( 'NONE',  ( 3.491481338843133355E-15, -1.224646799147353207E-16, 1.000000000000000000 ) ) ;
#3 = PERSON_AND_ORGANIZATION_ROLE ( 'design_owner' ) ;
#4 = DIRECTION ( 'NONE',  ( -3.491481338843133355E-15, 1.224646799147353207E-16, -1.000000000000000000 ) ) ;
#5 = APPROVAL_PERSON_ORGANIZATION ( #190, #43, #283 ) ;
#6 = APPROVAL_STATUS ( 'not_yet_approved' ) ;
#7 = CARTESIAN_POINT ( 'NONE',  ( -4.354302256573132444E-32, 1.527283637952722585E-33, -1.247121732581244653E-17 ) ) ;
#8 = FACE_OUTER_BOUND ( 'NONE', #79, .T. ) ;
#9 = CONICAL_SURFACE ( 'NONE', #35, 1.027999999999999359, 0.1919862177193697172 ) ;
#10 = CYLINDRICAL_SURFACE ( 'NONE', #55, 1.028000000000000247 ) ;
#11 = CIRCLE ( 'NONE', #113, 1.249999999999996669 ) ;
#12 = APPROVAL_PERSON_ORGANIZATION ( #63, #92, #41 ) ;
#13 = PRODUCT_DEFINITION_SHAPE ( 'NONE', 'NONE',  #56 ) ;
#14 = CARTESIAN_POINT ( 'NONE',  ( 3.351822085289407390E-14, 1.027999999999999137, 9.599999999999999645 ) ) ;
#15 = ORIENTED_EDGE ( 'NONE', *, *, #264, .T. ) ;
#16 = CYLINDRICAL_SURFACE ( 'NONE', #302, 1.249999999999998668 ) ;
#17 = APPLICATION_CONTEXT ( 'configuration controlled 3d designs of mechanical parts and assemblies' ) ;
#18 = ORIENTED_EDGE ( 'NONE', *, *, #188, .T. ) ;
#19 = AXIS2_PLACEMENT_3D ( 'NONE', #140, #285, #147 ) ;
#20 = CC_DESIGN_PERSON_AND_ORGANIZATION_ASSIGNMENT ( #186, #261, ( #56 ) ) ;
#21 = PERSON_AND_ORGANIZATION_ROLE ( 'classification_officer' ) ;
#22 = DIRECTION ( 'NONE',  ( -3.491481338843133355E-15, 1.224646799147353207E-16, -1.000000000000000000 ) ) ;
#23 = APPROVAL_DATE_TIME ( #234, #92 ) ;
#24 = DIRECTION ( 'NONE',  ( -7.493890834191583662E-31, -1.000000000000000000, -2.109342748026274475E-16 ) ) ;
#25 = SHAPE_DEFINITION_REPRESENTATION ( #13, #107 ) ;
#26 = CARTESIAN_POINT ( 'NONE',  ( 2.793185071074506684E-14, 7.708765282881932942E-33, 8.000000000000000000 ) ) ;
#27 = ADVANCED_FACE ( 'NONE', ( #211 ), #213, .F. ) ;
#28 = FACE_OUTER_BOUND ( 'NONE', #207, .T. ) ;
#29 = CARTESIAN_POINT ( 'NONE',  ( 8.395511146556332254E-16, -2.944748905988086963E-17, 0.2404569960937582851 ) ) ;
#30 = CARTESIAN_POINT ( 'NONE',  ( 3.351822085289407390E-14, -1.175660927181458842E-15, 9.599999999999999645 ) ) ;
#31 = CONICAL_SURFACE ( 'NONE', #202, 0.8414837342697757405, 1.047197551196592968 ) ;
#32 = EDGE_CURVE ( 'NONE', #224, #224, #128, .T. ) ;
#33 = ADVANCED_FACE ( 'NONE', ( #171, #189 ), #9, .T. ) ;
#34 = FACE_OUTER_BOUND ( 'NONE', #231, .T. ) ;
#35 = AXIS2_PLACEMENT_3D ( 'NONE', #149, #235, #24 ) ;
#36 = CARTESIAN_POINT ( 'NONE',  ( 9.463679131915806782E-32, 0.4249999999999999334, 2.710505431213761085E-17 ) ) ;
#37 = DIRECTION ( 'NONE',  ( 0.0000000000000000000, 1.000000000000000000, 0.0000000000000000000 ) ) ;
#38 = ORIENTED_EDGE ( 'NONE', *, *, #123, .T. ) ;
#39 = CARTESIAN_POINT ( 'NONE',  ( 2.793185071074506684E-14, -9.797174393178825657E-16, 8.000000000000000000 ) ) ;
#40 = EDGE_LOOP ( 'NONE', ( #83 ) ) ;
#41 = APPROVAL_ROLE ( '' ) ;
#42 = FACE_BOUND ( 'NONE', #70, .T. ) ;
#43 = APPROVAL ( #71, 'UNSPECIFIED' ) ;
#44 = PERSON_AND_ORGANIZATION ( #291, #221 ) ;
#45 = AXIS2_PLACEMENT_3D ( 'NONE', #174, #215, #120 ) ;
#46 = ORIENTED_EDGE ( 'NONE', *, *, #223, .T. ) ;
#47 = CALENDAR_DATE ( 2021, 17, 12 ) ;
#48 = FACE_OUTER_BOUND ( 'NONE', #88, .T. ) ;
#49 = DATE_AND_TIME ( #169, #251 ) ;
#50 = ORIENTED_EDGE ( 'NONE', *, *, #223, .F. ) ;
#51 = DIRECTION ( 'NONE',  ( 4.275831445896958607E-31, 1.000000000000000000, 1.224646799147353207E-16 ) ) ;
#52 = CONICAL_SURFACE ( 'NONE', #45, 1.249999999999996669, 0.2617993877991423024 ) ;
#53 = CC_DESIGN_PERSON_AND_ORGANIZATION_ASSIGNMENT ( #44, #21, ( #203 ) ) ;
#54 = AXIS2_PLACEMENT_3D ( 'NONE', #26, #65, #87 ) ;
#55 = AXIS2_PLACEMENT_3D ( 'NONE', #197, #290, #247 ) ;
#56 = PRODUCT_DEFINITION ( 'UNKNOWN', '', #80, #122 ) ;
#57 = VERTEX_POINT ( 'NONE', #132 ) ;
#58 = FACE_OUTER_BOUND ( 'NONE', #258, .T. ) ;
#59 = EDGE_CURVE ( 'NONE', #226, #226, #144, .T. ) ;
#60 = AXIS2_PLACEMENT_3D ( 'NONE', #249, #268, #292 ) ;
#61 = AXIS2_PLACEMENT_3D ( 'NONE', #72, #244, #51 ) ;
#62 = EDGE_LOOP ( 'NONE', ( #301 ) ) ;
#63 = PERSON_AND_ORGANIZATION ( #291, #221 ) ;
#64 = APPROVAL_DATE_TIME ( #116, #286 ) ;
#65 = DIRECTION ( 'NONE',  ( 3.491481338843133355E-15, -1.224646799147353207E-16, 1.000000000000000000 ) ) ;
#66 = PRODUCT ( '970907', '970907', '', ( #86 ) ) ;
#67 = APPLICATION_PROTOCOL_DEFINITION ( 'international standard', 'config_control_design', 1994, #17 ) ;
#68 = FACE_BOUND ( 'NONE', #274, .T. ) ;
#69 = COORDINATED_UNIVERSAL_TIME_OFFSET ( 1, 0, .AHEAD. ) ;
#70 = EDGE_LOOP ( 'NONE', ( #271 ) ) ;
#71 = APPROVAL_STATUS ( 'not_yet_approved' ) ;
#72 = CARTESIAN_POINT ( 'NONE',  ( 1.501336975702547217E-13, 7.498798913309216879E-33, 43.00000000000000000 ) ) ;
#73 = CIRCLE ( 'NONE', #179, 1.096148347421861624 ) ;
#74 = UNCERTAINTY_MEASURE_WITH_UNIT (LENGTH_MEASURE( 1.000000000000000082E-05 ), #230, 'distance_accuracy_value', 'NONE');
#75 = CARTESIAN_POINT ( 'NONE',  ( 8.395511146556332254E-16, -2.944748905988086963E-17, 0.2404569960937582851 ) ) ;
#76 = EDGE_CURVE ( 'NONE', #57, #57, #11, .T. ) ;
#77 = LOCAL_TIME ( 11, 59, 30.00000000000000000, #238 ) ;
#78 = CARTESIAN_POINT ( 'NONE',  ( 0.0000000000000000000, 0.0000000000000000000, 0.0000000000000000000 ) ) ;
#79 = EDGE_LOOP ( 'NONE', ( #200 ) ) ;
#80 = PRODUCT_DEFINITION_FORMATION_WITH_SPECIFIED_SOURCE ( 'ANY', '', #66, .NOT_KNOWN. ) ;
#81 = DIRECTION ( 'NONE',  ( 4.275831445896959482E-31, 1.000000000000000000, 1.224646799147353454E-16 ) ) ;
#82 = CARTESIAN_POINT ( 'NONE',  ( 2.793185071074506684E-14, 1.027999999999999137, 8.000000000000000000 ) ) ;
#83 = ORIENTED_EDGE ( 'NONE', *, *, #188, .F. ) ;
#84 = EDGE_LOOP ( 'NONE', ( #103 ) ) ;
#85 = ADVANCED_FACE ( 'NONE', ( #237 ), #303, .T. ) ;
#86 = MECHANICAL_CONTEXT ( 'NONE', #17, 'mechanical' ) ;
#87 = DIRECTION ( 'NONE',  ( -4.275831445896958607E-31, -1.000000000000000000, -1.224646799147353207E-16 ) ) ;
#88 = EDGE_LOOP ( 'NONE', ( #241 ) ) ;
#89 = APPROVAL_STATUS ( 'not_yet_approved' ) ;
#90 = FACE_OUTER_BOUND ( 'NONE', #136, .T. ) ;
#91 = CIRCLE ( 'NONE', #180, 1.028000000000000247 ) ;
#92 = APPROVAL ( #89, 'UNSPECIFIED' ) ;
#93 = CALENDAR_DATE ( 2021, 17, 12 ) ;
#94 = DIRECTION ( 'NONE',  ( 3.491481338843133355E-15, -1.224646799147353207E-16, 1.000000000000000000 ) ) ;
#95 = DIRECTION ( 'NONE',  ( -3.491481338843133355E-15, 1.224646799147353207E-16, -1.000000000000000000 ) ) ;
#96 = EDGE_CURVE ( 'NONE', #250, #250, #142, .T. ) ;
#97 = DIRECTION ( 'NONE',  ( 0.0000000000000000000, 1.000000000000000000, 0.0000000000000000000 ) ) ;
#98 = DIRECTION ( 'NONE',  ( 3.491481338843133355E-15, -1.224646799147353207E-16, 1.000000000000000000 ) ) ;
#99 = DIRECTION ( 'NONE',  ( 0.0000000000000000000, 1.000000000000000000, 0.0000000000000000000 ) ) ;
#100 = AXIS2_PLACEMENT_3D ( 'NONE', #281, #2, #151 ) ;
#101 = LOCAL_TIME ( 11, 59, 30.00000000000000000, #167 ) ;
#102 = DIRECTION ( 'NONE',  ( 4.275831445896958607E-31, 1.000000000000000000, 1.224646799147353207E-16 ) ) ;
#103 = ORIENTED_EDGE ( 'NONE', *, *, #293, .T. ) ;
#104 = VERTEX_POINT ( 'NONE', #14 ) ;
#105 = ADVANCED_FACE ( 'NONE', ( #115 ), #260, .F. ) ;
#106 = FACE_OUTER_BOUND ( 'NONE', #194, .T. ) ;
#107 = ADVANCED_BREP_SHAPE_REPRESENTATION ( '970907', ( #141, #138, #150 ), #242 ) ;
#108 = ORIENTED_EDGE ( 'NONE', *, *, #59, .F. ) ;
#109 = ORIENTED_EDGE ( 'NONE', *, *, #192, .F. ) ;
#110 = EDGE_LOOP ( 'NONE', ( #299 ) ) ;
#111 = DATE_AND_TIME ( #243, #209 ) ;
#112 = CARTESIAN_POINT ( 'NONE',  ( 3.733029096652458811E-14, -1.309370347617018987E-15, 10.69182027445508076 ) ) ;
#113 = AXIS2_PLACEMENT_3D ( 'NONE', #112, #219, #279 ) ;
#114 = COORDINATED_UNIVERSAL_TIME_OFFSET ( 1, 0, .AHEAD. ) ;
#115 = FACE_OUTER_BOUND ( 'NONE', #84, .T. ) ;
#116 = DATE_AND_TIME ( #278, #77 ) ;
#117 = DIRECTION ( 'NONE',  ( 0.0000000000000000000, 1.000000000000000000, 0.0000000000000000000 ) ) ;
#118 = SECURITY_CLASSIFICATION_LEVEL ( 'unclassified' ) ;
#119 = CC_DESIGN_APPROVAL ( #43, ( #203 ) ) ;
#120 = DIRECTION ( 'NONE',  ( 0.0000000000000000000, -1.000000000000000000, 0.0000000000000000000 ) ) ;
#121 = CARTESIAN_POINT ( 'NONE',  ( 1.492608272355439415E-13, -5.235365066354933894E-15, 42.74999999999999289 ) ) ;
#122 = DESIGN_CONTEXT ( 'detailed design', #170, 'design' ) ;
#123 = EDGE_CURVE ( 'NONE', #155, #155, #73, .T. ) ;
#124 = CC_DESIGN_SECURITY_CLASSIFICATION ( #203, ( #80 ) ) ;
#125 = FACE_OUTER_BOUND ( 'NONE', #254, .T. ) ;
#126 = DIRECTION ( 'NONE',  ( -3.491481338843133355E-15, 1.224646799147353207E-16, -1.000000000000000000 ) ) ;
#127 = AXIS2_PLACEMENT_3D ( 'NONE', #39, #139, #199 ) ;
#128 = CIRCLE ( 'NONE', #19, 0.4249999999999999334 ) ;
#129 = CLOSED_SHELL ( 'NONE', ( #105, #245, #145, #131, #246, #282, #27 ) ) ;
#130 = CARTESIAN_POINT ( 'NONE',  ( 0.0000000000000000000, 0.0000000000000000000, 0.0000000000000000000 ) ) ;
#131 = ADVANCED_FACE ( 'NONE', ( #68, #48 ), #52, .T. ) ;
#132 = CARTESIAN_POINT ( 'NONE',  ( 3.733029096652458811E-14, 1.249999999999995559, 10.69182027445508076 ) ) ;
#133 = FACE_OUTER_BOUND ( 'NONE', #110, .T. ) ;
#134 = EDGE_LOOP ( 'NONE', ( #50 ) ) ;
#135 = CARTESIAN_POINT ( 'NONE',  ( 2.793185071074506684E-14, -9.797174393178825657E-16, 8.000000000000000000 ) ) ;
#136 = EDGE_LOOP ( 'NONE', ( #109 ) ) ;
#137 = CC_DESIGN_DATE_AND_TIME_ASSIGNMENT ( #284, #172, ( #203 ) ) ;
#138 = MANIFOLD_SOLID_BREP ( 'Corps-Déplacer/Copier1[2]', #263 ) ;
#139 = DIRECTION ( 'NONE',  ( -3.491481338843133355E-15, 1.224646799147353207E-16, -1.000000000000000000 ) ) ;
#140 = CARTESIAN_POINT ( 'NONE',  ( -8.708604513146264887E-32, 3.054567275905445171E-33, -2.494243465162489306E-17 ) ) ;
#141 = MANIFOLD_SOLID_BREP ( 'Corps-Déplacer/Copier1[1]', #129 ) ;
#142 = CIRCLE ( 'NONE', #158, 1.027999999999999359 ) ;
#143 = CARTESIAN_POINT ( 'NONE',  ( 0.0000000000000000000, 0.0000000000000000000, 0.0000000000000000000 ) ) ;
#144 = CIRCLE ( 'NONE', #269, 1.250000000000000666 ) ;
#145 = ADVANCED_FACE ( 'NONE', ( #90, #28 ), #220, .F. ) ;
#146 = APPROVAL_ROLE ( '' ) ;
#147 = DIRECTION ( 'NONE',  ( 4.275831445896958607E-31, 1.000000000000000000, 1.224646799147353207E-16 ) ) ;
#148 = APPROVAL_DATE_TIME ( #49, #43 ) ;
#149 = CARTESIAN_POINT ( 'NONE',  ( 4.189777606611758449E-15, -1.469576158976823553E-16, 1.199999999999999734 ) ) ;
#150 = AXIS2_PLACEMENT_3D ( 'NONE', #143, #280, #300 ) ;
#151 = DIRECTION ( 'NONE',  ( -4.275831445896958607E-31, -1.000000000000000000, -1.224646799147353207E-16 ) ) ;
#152 = ADVANCED_FACE ( 'NONE', ( #8 ), #163, .F. ) ;
#153 = CC_DESIGN_DATE_AND_TIME_ASSIGNMENT ( #111, #240, ( #56 ) ) ;
#154 = FACE_OUTER_BOUND ( 'NONE', #62, .T. ) ;
#155 = VERTEX_POINT ( 'NONE', #183 ) ;
#156 = ADVANCED_FACE ( 'NONE', ( #42, #125 ), #31, .T. ) ;
#157 = APPROVAL_PERSON_ORGANIZATION ( #212, #286, #146 ) ;
#158 = AXIS2_PLACEMENT_3D ( 'NONE', #187, #22, #262 ) ;
#159 = DIRECTION ( 'NONE',  ( -3.491481338843133355E-15, 1.224646799147353207E-16, -1.000000000000000000 ) ) ;
#160 = CYLINDRICAL_SURFACE ( 'NONE', #162, 1.027999999999999803 ) ;
#161 = DIRECTION ( 'NONE',  ( -3.491481338843133355E-15, 1.224646799147353207E-16, -1.000000000000000000 ) ) ;
#162 = AXIS2_PLACEMENT_3D ( 'NONE', #130, #161, #102 ) ;
#163 = PLANE ( 'NONE',  #198 ) ;
#164 = PERSON_AND_ORGANIZATION_ROLE ( 'creator' ) ;
#165 = CARTESIAN_POINT ( 'NONE',  ( 3.532554458511933817E-14, -1.239053310210092871E-15, 10.11763809020502869 ) ) ;
#166 = CIRCLE ( 'NONE', #236, 0.8414837342697757405 ) ;
#167 = COORDINATED_UNIVERSAL_TIME_OFFSET ( 1, 0, .AHEAD. ) ;
#168 = EDGE_LOOP ( 'NONE', ( #233 ) ) ;
#169 = CALENDAR_DATE ( 2021, 17, 12 ) ;
#170 = APPLICATION_CONTEXT ( 'configuration controlled 3d designs of mechanical parts and assemblies' ) ;
#171 = FACE_BOUND ( 'NONE', #40, .T. ) ;
#172 = DATE_TIME_ROLE ( 'classification_date' ) ;
#173 = PRODUCT_RELATED_PRODUCT_CATEGORY ( 'detail', '', ( #66 ) ) ;
#174 = CARTESIAN_POINT ( 'NONE',  ( 3.733029096652458811E-14, -1.309370347617018987E-15, 10.69182027445508076 ) ) ;
#175 = AXIS2_PLACEMENT_3D ( 'NONE', #218, #287, #191 ) ;
#176 = CIRCLE ( 'NONE', #270, 1.000000000000000666 ) ;
#177 = DIRECTION ( 'NONE',  ( -3.491481338843133355E-15, 1.224646799147353207E-16, -1.000000000000000000 ) ) ;
#178 = EDGE_LOOP ( 'NONE', ( #46 ) ) ;
#179 = AXIS2_PLACEMENT_3D ( 'NONE', #165, #95, #117 ) ;
#180 = AXIS2_PLACEMENT_3D ( 'NONE', #135, #159, #37 ) ;
#181 = VERTEX_POINT ( 'NONE', #204 ) ;
#182 = ORIENTED_EDGE ( 'NONE', *, *, #123, .F. ) ;
#183 = CARTESIAN_POINT ( 'NONE',  ( 3.532554458511933817E-14, 1.096148347421860292, 10.11763809020502869 ) ) ;
#184 = ORIENTED_EDGE ( 'NONE', *, *, #192, .T. ) ;
#185 = AXIS2_PLACEMENT_3D ( 'NONE', #30, #177, #99 ) ;
#186 = PERSON_AND_ORGANIZATION ( #291, #221 ) ;
#187 = CARTESIAN_POINT ( 'NONE',  ( 4.189777606611758449E-15, -1.469576158976823553E-16, 1.199999999999999734 ) ) ;
#188 = EDGE_CURVE ( 'NONE', #225, #225, #166, .T. ) ;
#189 = FACE_OUTER_BOUND ( 'NONE', #195, .T. ) ;
#190 = PERSON_AND_ORGANIZATION ( #291, #221 ) ;
#191 = DIRECTION ( 'NONE',  ( 4.275831445896958607E-31, 1.000000000000000000, 1.224646799147353207E-16 ) ) ;
#192 = EDGE_CURVE ( 'NONE', #104, #104, #229, .T. ) ;
#193 = PERSON_AND_ORGANIZATION ( #291, #221 ) ;
#194 = EDGE_LOOP ( 'NONE', ( #108 ) ) ;
#195 = EDGE_LOOP ( 'NONE', ( #228 ) ) ;
#196 = DIRECTION ( 'NONE',  ( 4.577462085012309595E-31, 1.000000000000000000, 1.288441033772750698E-16 ) ) ;
#197 = CARTESIAN_POINT ( 'NONE',  ( 0.0000000000000000000, 0.0000000000000000000, 0.0000000000000000000 ) ) ;
#198 = AXIS2_PLACEMENT_3D ( 'NONE', #7, #94, #256 ) ;
#199 = DIRECTION ( 'NONE',  ( 0.0000000000000000000, 1.000000000000000000, 0.0000000000000000000 ) ) ;
#200 = ORIENTED_EDGE ( 'NONE', *, *, #32, .T. ) ;
#201 = VERTEX_POINT ( 'NONE', #298 ) ;
#202 = AXIS2_PLACEMENT_3D ( 'NONE', #29, #98, #289 ) ;
#203 = SECURITY_CLASSIFICATION ( '', '', #118 ) ;
#204 = CARTESIAN_POINT ( 'NONE',  ( 2.793185071074506684E-14, 1.027999999999999137, 8.000000000000000000 ) ) ;
#205 = EDGE_LOOP ( 'NONE', ( #297 ) ) ;
#206 = FACE_BOUND ( 'NONE', #178, .T. ) ;
#207 = EDGE_LOOP ( 'NONE', ( #38 ) ) ;
#208 = ORIENTED_EDGE ( 'NONE', *, *, #96, .F. ) ;
#209 = LOCAL_TIME ( 11, 59, 30.00000000000000000, #1 ) ;
#210 = CC_DESIGN_PERSON_AND_ORGANIZATION_ASSIGNMENT ( #255, #3, ( #66 ) ) ;
#211 = FACE_OUTER_BOUND ( 'NONE', #134, .T. ) ;
#212 = PERSON_AND_ORGANIZATION ( #291, #221 ) ;
#213 = PLANE ( 'NONE',  #61 ) ;
#214 = PERSON_AND_ORGANIZATION_ROLE ( 'design_supplier' ) ;
#215 = DIRECTION ( 'NONE',  ( 3.491481338843133355E-15, -1.224646799147353207E-16, 1.000000000000000000 ) ) ;
#216 = CC_DESIGN_PERSON_AND_ORGANIZATION_ASSIGNMENT ( #193, #164, ( #80 ) ) ;
#217 = CONICAL_SURFACE ( 'NONE', #60, 1.000000000000000666, 0.7853981633974479459 ) ;
#218 = CARTESIAN_POINT ( 'NONE',  ( 3.351822085289407390E-14, -1.301042606982605321E-15, 9.599999999999999645 ) ) ;
#219 = DIRECTION ( 'NONE',  ( -3.491481338843133355E-15, 1.224646799147353207E-16, -1.000000000000000000 ) ) ;
#220 = TOROIDAL_SURFACE ( 'NONE', #175, 3.028000000000000913, 2.000000000000000000 ) ;
#221 = ORGANIZATION ( 'UNSPECIFIED', 'UNSPECIFIED', '' ) ;
#222 = FACE_OUTER_BOUND ( 'NONE', #294, .T. ) ;
#223 = EDGE_CURVE ( 'NONE', #201, #201, #176, .T. ) ;
#224 = VERTEX_POINT ( 'NONE', #36 ) ;
#225 = VERTEX_POINT ( 'NONE', #296 ) ;
#226 = VERTEX_POINT ( 'NONE', #248 ) ;
#227 = CC_DESIGN_PERSON_AND_ORGANIZATION_ASSIGNMENT ( #257, #214, ( #80 ) ) ;
#228 = ORIENTED_EDGE ( 'NONE', *, *, #96, .T. ) ;
#229 = CIRCLE ( 'NONE', #185, 1.028000000000000247 ) ;
#230 =( LENGTH_UNIT ( ) NAMED_UNIT ( * ) SI_UNIT ( .MILLI., .METRE. ) );
#231 = EDGE_LOOP ( 'NONE', ( #208 ) ) ;
#232 = VERTEX_POINT ( 'NONE', #82 ) ;
#233 = ORIENTED_EDGE ( 'NONE', *, *, #59, .T. ) ;
#234 = DATE_AND_TIME ( #47, #101 ) ;
#235 = DIRECTION ( 'NONE',  ( 3.491481338843133355E-15, -1.224646799147353207E-16, 1.000000000000000000 ) ) ;
#236 = AXIS2_PLACEMENT_3D ( 'NONE', #75, #267, #196 ) ;
#237 = FACE_OUTER_BOUND ( 'NONE', #205, .T. ) ;
#238 = COORDINATED_UNIVERSAL_TIME_OFFSET ( 1, 0, .AHEAD. ) ;
#239 = DIRECTION ( 'NONE',  ( 0.0000000000000000000, 1.000000000000000000, 0.0000000000000000000 ) ) ;
#240 = DATE_TIME_ROLE ( 'creation_date' ) ;
#241 = ORIENTED_EDGE ( 'NONE', *, *, #76, .T. ) ;
#242 =( GEOMETRIC_REPRESENTATION_CONTEXT ( 3 ) GLOBAL_UNCERTAINTY_ASSIGNED_CONTEXT ( ( #74 ) ) GLOBAL_UNIT_ASSIGNED_CONTEXT ( ( #230, #253, #276 ) ) REPRESENTATION_CONTEXT ( 'NONE', 'WORKASPACE' ) );
#243 = CALENDAR_DATE ( 2021, 17, 12 ) ;
#244 = DIRECTION ( 'NONE',  ( -3.491481338843133355E-15, 1.224646799147353207E-16, -1.000000000000000000 ) ) ;
#245 = ADVANCED_FACE ( 'NONE', ( #154, #222 ), #10, .T. ) ;
#246 = ADVANCED_FACE ( 'NONE', ( #133, #273 ), #16, .T. ) ;
#247 = DIRECTION ( 'NONE',  ( 4.275831445896958607E-31, 1.000000000000000000, 1.224646799147352961E-16 ) ) ;
#248 = CARTESIAN_POINT ( 'NONE',  ( 1.492608272355439415E-13, 1.249999999999995559, 42.74999999999999289 ) ) ;
#249 = CARTESIAN_POINT ( 'NONE',  ( 1.501336975702547217E-13, -5.265981236333618470E-15, 43.00000000000000000 ) ) ;
#250 = VERTEX_POINT ( 'NONE', #295 ) ;
#251 = LOCAL_TIME ( 11, 59, 30.00000000000000000, #69 ) ;
#252 = LOCAL_TIME ( 11, 59, 30.00000000000000000, #114 ) ;
#253 =( NAMED_UNIT ( * ) PLANE_ANGLE_UNIT ( ) SI_UNIT ( $, .RADIAN. ) );
#254 = EDGE_LOOP ( 'NONE', ( #18 ) ) ;
#255 = PERSON_AND_ORGANIZATION ( #291, #221 ) ;
#256 = DIRECTION ( 'NONE',  ( -4.275831445896958607E-31, -1.000000000000000000, -1.224646799147353207E-16 ) ) ;
#257 = PERSON_AND_ORGANIZATION ( #291, #221 ) ;
#258 = EDGE_LOOP ( 'NONE', ( #15 ) ) ;
#259 = CC_DESIGN_APPROVAL ( #286, ( #80 ) ) ;
#260 = PLANE ( 'NONE',  #100 ) ;
#261 = PERSON_AND_ORGANIZATION_ROLE ( 'creator' ) ;
#262 = DIRECTION ( 'NONE',  ( 7.493890834191583662E-31, 1.000000000000000000, 2.109342748026274475E-16 ) ) ;
#263 = CLOSED_SHELL ( 'NONE', ( #152, #156, #33, #275, #85 ) ) ;
#264 = EDGE_CURVE ( 'NONE', #181, #181, #288, .T. ) ;
#265 = CC_DESIGN_APPROVAL ( #92, ( #56 ) ) ;
#266 = CARTESIAN_POINT ( 'NONE',  ( 1.501336975702547217E-13, -5.265981236333618470E-15, 43.00000000000000000 ) ) ;
#267 = DIRECTION ( 'NONE',  ( -3.491481338843133355E-15, 1.224646799147353207E-16, -1.000000000000000000 ) ) ;
#268 = DIRECTION ( 'NONE',  ( -3.491481338843133355E-15, 1.224646799147353207E-16, -1.000000000000000000 ) ) ;
#269 = AXIS2_PLACEMENT_3D ( 'NONE', #121, #4, #239 ) ;
#270 = AXIS2_PLACEMENT_3D ( 'NONE', #266, #126, #97 ) ;
#271 = ORIENTED_EDGE ( 'NONE', *, *, #32, .F. ) ;
#272 = DIRECTION ( 'NONE',  ( -3.491481338843133355E-15, 1.224646799147353207E-16, -1.000000000000000000 ) ) ;
#273 = FACE_OUTER_BOUND ( 'NONE', #168, .T. ) ;
#274 = EDGE_LOOP ( 'NONE', ( #182 ) ) ;
#275 = ADVANCED_FACE ( 'NONE', ( #34, #58 ), #160, .T. ) ;
#276 =( NAMED_UNIT ( * ) SI_UNIT ( $, .STERADIAN. ) SOLID_ANGLE_UNIT ( ) );
#277 = APPLICATION_PROTOCOL_DEFINITION ( 'international standard', 'config_control_design', 1994, #170 ) ;
#278 = CALENDAR_DATE ( 2021, 17, 12 ) ;
#279 = DIRECTION ( 'NONE',  ( 0.0000000000000000000, 1.000000000000000000, 0.0000000000000000000 ) ) ;
#280 = DIRECTION ( 'NONE',  ( 0.0000000000000000000, 0.0000000000000000000, 1.000000000000000000 ) ) ;
#281 = CARTESIAN_POINT ( 'NONE',  ( 2.793185071074506684E-14, 7.708765282881932942E-33, 8.000000000000000000 ) ) ;
#282 = ADVANCED_FACE ( 'NONE', ( #106, #206 ), #217, .T. ) ;
#283 = APPROVAL_ROLE ( '' ) ;
#284 = DATE_AND_TIME ( #93, #252 ) ;
#285 = DIRECTION ( 'NONE',  ( -3.491481338843133355E-15, 1.224646799147353207E-16, -1.000000000000000000 ) ) ;
#286 = APPROVAL ( #6, 'UNSPECIFIED' ) ;
#287 = DIRECTION ( 'NONE',  ( -3.491481338843133355E-15, 1.224646799147353207E-16, -1.000000000000000000 ) ) ;
#288 = CIRCLE ( 'NONE', #127, 1.028000000000000247 ) ;
#289 = DIRECTION ( 'NONE',  ( -4.577462085012309595E-31, -1.000000000000000000, -1.288441033772750698E-16 ) ) ;
#290 = DIRECTION ( 'NONE',  ( -3.491481338843133355E-15, 1.224646799147353207E-16, -1.000000000000000000 ) ) ;
#291 = PERSON ( 'UNSPECIFIED', 'UNSPECIFIED', 'UNSPECIFIED', ('UNSPECIFIED'), ('UNSPECIFIED'), ('UNSPECIFIED') ) ;
#292 = DIRECTION ( 'NONE',  ( 0.0000000000000000000, 1.000000000000000000, 0.0000000000000000000 ) ) ;
#293 = EDGE_CURVE ( 'NONE', #232, #232, #91, .T. ) ;
#294 = EDGE_LOOP ( 'NONE', ( #184 ) ) ;
#295 = CARTESIAN_POINT ( 'NONE',  ( 4.189777606611759237E-15, 1.027999999999999137, 1.199999999999999956 ) ) ;
#296 = CARTESIAN_POINT ( 'NONE',  ( 8.395511146556336198E-16, 0.8414837342697757405, 0.2404569960937583961 ) ) ;
#297 = ORIENTED_EDGE ( 'NONE', *, *, #264, .F. ) ;
#298 = CARTESIAN_POINT ( 'NONE',  ( 1.501336975702547217E-13, 0.9999999999999954481, 43.00000000000000000 ) ) ;
#299 = ORIENTED_EDGE ( 'NONE', *, *, #76, .F. ) ;
#300 = DIRECTION ( 'NONE',  ( 1.000000000000000000, 0.0000000000000000000, 0.0000000000000000000 ) ) ;
#301 = ORIENTED_EDGE ( 'NONE', *, *, #293, .F. ) ;
#302 = AXIS2_PLACEMENT_3D ( 'NONE', #78, #272, #81 ) ;
#303 = PLANE ( 'NONE',  #54 ) ;
ENDSEC;
END-ISO-10303-21;
