ISO-10303-21;
HEADER;
FILE_DESCRIPTION (( 'STEP AP203' ),
    '1' );
FILE_NAME ('970906.step',
    '2021-12-17T10:59:30',
    ( '' ),
    ( '' ),
    'SwSTEP 2.0',
    'SolidWorks 2019',
    '' );
FILE_SCHEMA (( 'CONFIG_CONTROL_DESIGN' ));
ENDSEC;

DATA;
#1 = ORIENTED_EDGE ( 'NONE', *, *, #163, .T. ) ;
#2 = APPROVAL_STATUS ( 'not_yet_approved' ) ;
#3 = EDGE_LOOP ( 'NONE', ( #212 ) ) ;
#4 = DIRECTION ( 'NONE',  ( 0.0000000000000000000, 0.0000000000000000000, 1.000000000000000000 ) ) ;
#5 = PRODUCT_DEFINITION_SHAPE ( 'NONE', 'NONE',  #242 ) ;
#6 = APPLICATION_CONTEXT ( 'configuration controlled 3d designs of mechanical parts and assemblies' ) ;
#7 = EDGE_LOOP ( 'NONE', ( #107 ) ) ;
#8 = ADVANCED_FACE ( 'NONE', ( #188 ), #61, .F. ) ;
#9 = CARTESIAN_POINT ( 'NONE',  ( 1.326762908760390423E-13, 5.999039130647358587E-33, 38.00000000000000000 ) ) ;
#10 = DIRECTION ( 'NONE',  ( -3.491481338843133355E-15, 1.224646799147353207E-16, -1.000000000000000000 ) ) ;
#11 = CC_DESIGN_PERSON_AND_ORGANIZATION_ASSIGNMENT ( #50, #24, ( #242 ) ) ;
#12 = CARTESIAN_POINT ( 'NONE',  ( -1.432403534375481545E-31, 5.024195271917224081E-33, -4.102566777143634021E-17 ) ) ;
#13 = FACE_OUTER_BOUND ( 'NONE', #3, .T. ) ;
#14 = CC_DESIGN_APPROVAL ( #167, ( #29 ) ) ;
#15 = CLOSED_SHELL ( 'NONE', ( #270, #292, #246, #195, #66, #137, #8 ) ) ;
#16 = CYLINDRICAL_SURFACE ( 'NONE', #129, 0.9999999999999978906 ) ;
#17 = DIRECTION ( 'NONE',  ( -3.491481338843133355E-15, 1.224646799147353207E-16, -1.000000000000000000 ) ) ;
#18 = FACE_OUTER_BOUND ( 'NONE', #25, .T. ) ;
#19 = DIRECTION ( 'NONE',  ( 4.275831445896958607E-31, 1.000000000000000000, 1.224646799147353207E-16 ) ) ;
#20 = FACE_OUTER_BOUND ( 'NONE', #190, .T. ) ;
#21 = FACE_OUTER_BOUND ( 'NONE', #7, .T. ) ;
#22 = EDGE_CURVE ( 'NONE', #249, #249, #231, .T. ) ;
#23 = CIRCLE ( 'NONE', #153, 0.9999999999999993339 ) ;
#24 = PERSON_AND_ORGANIZATION_ROLE ( 'creator' ) ;
#25 = EDGE_LOOP ( 'NONE', ( #171 ) ) ;
#26 = CALENDAR_DATE ( 2021, 17, 12 ) ;
#27 = EDGE_CURVE ( 'NONE', #118, #118, #42, .T. ) ;
#28 = ORGANIZATION ( 'UNSPECIFIED', 'UNSPECIFIED', '' ) ;
#29 = SECURITY_CLASSIFICATION ( '', '', #237 ) ;
#30 = AXIS2_PLACEMENT_3D ( 'NONE', #290, #264, #179 ) ;
#31 = CONICAL_SURFACE ( 'NONE', #257, 0.6491571231029621414, 1.047197551196592524 ) ;
#32 = PERSON_AND_ORGANIZATION_ROLE ( 'design_supplier' ) ;
#33 = MANIFOLD_SOLID_BREP ( 'Corps-Déplacer/Copier1[2]', #64 ) ;
#34 = DATE_AND_TIME ( #36, #72 ) ;
#35 = CARTESIAN_POINT ( 'NONE',  ( 6.332803448867832200E-16, -2.221248438880385865E-17, 0.1813786995913356792 ) ) ;
#36 = CALENDAR_DATE ( 2021, 17, 12 ) ;
#37 = DIRECTION ( 'NONE',  ( -3.491481338843133355E-15, 1.224646799147353207E-16, -1.000000000000000000 ) ) ;
#38 = MANIFOLD_SOLID_BREP ( 'Corps-Déplacer/Copier1[1]', #15 ) ;
#39 = CARTESIAN_POINT ( 'NONE',  ( 2.234548056859605347E-14, -7.837739514543060920E-16, 6.400000000000000355 ) ) ;
#40 = CC_DESIGN_PERSON_AND_ORGANIZATION_ASSIGNMENT ( #170, #258, ( #29 ) ) ;
#41 = FACE_BOUND ( 'NONE', #234, .T. ) ;
#42 = CIRCLE ( 'NONE', #48, 0.6491571231029621414 ) ;
#43 = CARTESIAN_POINT ( 'NONE',  ( 6.332803448867835158E-16, 0.6491571231029621414, 0.1813786995913357625 ) ) ;
#44 = PRODUCT ( '970906', '970906', '', ( #55 ) ) ;
#45 = VERTEX_POINT ( 'NONE', #295 ) ;
#46 = CARTESIAN_POINT ( 'NONE',  ( 3.052440912659729453E-14, 0.9999999999999954481, 8.742538242152324557 ) ) ;
#47 = DIRECTION ( 'NONE',  ( 4.386065129596666206E-31, 1.000000000000000000, 1.224646799147353207E-16 ) ) ;
#48 = AXIS2_PLACEMENT_3D ( 'NONE', #35, #198, #158 ) ;
#49 = CARTESIAN_POINT ( 'NONE',  ( 0.0000000000000000000, 0.0000000000000000000, 0.0000000000000000000 ) ) ;
#50 = PERSON_AND_ORGANIZATION ( #235, #28 ) ;
#51 =( GEOMETRIC_REPRESENTATION_CONTEXT ( 3 ) GLOBAL_UNCERTAINTY_ASSIGNED_CONTEXT ( ( #268 ) ) GLOBAL_UNIT_ASSIGNED_CONTEXT ( ( #127, #187, #280 ) ) REPRESENTATION_CONTEXT ( 'NONE', 'WORKASPACE' ) );
#52 = PERSON_AND_ORGANIZATION ( #235, #28 ) ;
#53 = COORDINATED_UNIVERSAL_TIME_OFFSET ( 1, 0, .AHEAD. ) ;
#54 = ADVANCED_FACE ( 'NONE', ( #41, #243 ), #31, .T. ) ;
#55 = MECHANICAL_CONTEXT ( 'NONE', #99, 'mechanical' ) ;
#56 = PERSON_AND_ORGANIZATION_ROLE ( 'creator' ) ;
#57 = LOCAL_TIME ( 11, 59, 30.00000000000000000, #151 ) ;
#58 = ORIENTED_EDGE ( 'NONE', *, *, #163, .F. ) ;
#59 = AXIS2_PLACEMENT_3D ( 'NONE', #71, #117, #204 ) ;
#60 = EDGE_CURVE ( 'NONE', #201, #201, #216, .T. ) ;
#61 = PLANE ( 'NONE',  #176 ) ;
#62 = DIRECTION ( 'NONE',  ( -3.491481338843133355E-15, 1.224646799147353207E-16, -1.000000000000000000 ) ) ;
#63 = DIRECTION ( 'NONE',  ( 0.0000000000000000000, 1.000000000000000000, 0.0000000000000000000 ) ) ;
#64 = CLOSED_SHELL ( 'NONE', ( #122, #54, #273, #278, #228 ) ) ;
#65 = CARTESIAN_POINT ( 'NONE',  ( 3.666055405785290812E-15, -1.285879139104720978E-16, 1.050000000000000044 ) ) ;
#66 = ADVANCED_FACE ( 'NONE', ( #178, #13 ), #16, .T. ) ;
#67 = CARTESIAN_POINT ( 'NONE',  ( 3.052440912659729453E-14, -1.070652147467517233E-15, 8.742538242152324557 ) ) ;
#68 = DIRECTION ( 'NONE',  ( 0.0000000000000000000, 1.000000000000000000, 0.0000000000000000000 ) ) ;
#69 = VERTEX_POINT ( 'NONE', #93 ) ;
#70 = CIRCLE ( 'NONE', #240, 0.9999999999999965583 ) ;
#71 = CARTESIAN_POINT ( 'NONE',  ( 3.666055405785290812E-15, -1.285879139104720978E-16, 1.050000000000000044 ) ) ;
#72 = LOCAL_TIME ( 11, 59, 30.00000000000000000, #281 ) ;
#73 = AXIS2_PLACEMENT_3D ( 'NONE', #296, #184, #76 ) ;
#74 = FACE_OUTER_BOUND ( 'NONE', #116, .T. ) ;
#75 = AXIS2_PLACEMENT_3D ( 'NONE', #265, #267, #291 ) ;
#76 = DIRECTION ( 'NONE',  ( 4.275831445896958607E-31, 1.000000000000000000, 1.224646799147353454E-16 ) ) ;
#77 = COORDINATED_UNIVERSAL_TIME_OFFSET ( 1, 0, .AHEAD. ) ;
#78 = EDGE_LOOP ( 'NONE', ( #80 ) ) ;
#79 = PERSON_AND_ORGANIZATION ( #235, #28 ) ;
#80 = ORIENTED_EDGE ( 'NONE', *, *, #60, .F. ) ;
#81 = APPROVAL_ROLE ( '' ) ;
#82 = ORIENTED_EDGE ( 'NONE', *, *, #301, .F. ) ;
#83 = DATE_AND_TIME ( #26, #126 ) ;
#84 = EDGE_LOOP ( 'NONE', ( #103 ) ) ;
#85 = CONICAL_SURFACE ( 'NONE', #119, 0.7999999999999996003, 0.7853981633974507215 ) ;
#86 = AXIS2_PLACEMENT_3D ( 'NONE', #12, #10, #154 ) ;
#87 = SHAPE_DEFINITION_REPRESENTATION ( #5, #297 ) ;
#88 = CARTESIAN_POINT ( 'NONE',  ( 6.332803448867832200E-16, -2.221248438880385865E-17, 0.1813786995913356792 ) ) ;
#89 = AXIS2_PLACEMENT_3D ( 'NONE', #39, #37, #63 ) ;
#90 = CARTESIAN_POINT ( 'NONE',  ( 2.723355444297644017E-14, -9.552245033349354572E-16, 7.799999999999999822 ) ) ;
#91 = DIRECTION ( 'NONE',  ( 3.491481338843133355E-15, -1.224646799147353207E-16, 1.000000000000000000 ) ) ;
#92 = CC_DESIGN_DATE_AND_TIME_ASSIGNMENT ( #83, #102, ( #242 ) ) ;
#93 = CARTESIAN_POINT ( 'NONE',  ( 2.234548056859605347E-14, 0.8179999999999990612, 6.400000000000000355 ) ) ;
#94 = AXIS2_PLACEMENT_3D ( 'NONE', #65, #157, #223 ) ;
#95 = VERTEX_POINT ( 'NONE', #182 ) ;
#96 = DIRECTION ( 'NONE',  ( 0.0000000000000000000, 1.000000000000000000, 0.0000000000000000000 ) ) ;
#97 = DIRECTION ( 'NONE',  ( -3.491481338843133355E-15, 1.224646799147353207E-16, -1.000000000000000000 ) ) ;
#98 = CC_DESIGN_PERSON_AND_ORGANIZATION_ASSIGNMENT ( #79, #32, ( #185 ) ) ;
#99 = APPLICATION_CONTEXT ( 'configuration controlled 3d designs of mechanical parts and assemblies' ) ;
#100 = APPROVAL_ROLE ( '' ) ;
#101 = EDGE_LOOP ( 'NONE', ( #130 ) ) ;
#102 = DATE_TIME_ROLE ( 'creation_date' ) ;
#103 = ORIENTED_EDGE ( 'NONE', *, *, #27, .T. ) ;
#104 = APPROVAL_ROLE ( '' ) ;
#105 = CC_DESIGN_APPROVAL ( #261, ( #185 ) ) ;
#106 = APPLICATION_PROTOCOL_DEFINITION ( 'international standard', 'config_control_design', 1994, #99 ) ;
#107 = ORIENTED_EDGE ( 'NONE', *, *, #22, .F. ) ;
#108 = CALENDAR_DATE ( 2021, 17, 12 ) ;
#109 = EDGE_LOOP ( 'NONE', ( #303 ) ) ;
#110 = FACE_BOUND ( 'NONE', #109, .T. ) ;
#111 = FACE_OUTER_BOUND ( 'NONE', #143, .T. ) ;
#112 = PLANE ( 'NONE',  #30 ) ;
#113 = DIRECTION ( 'NONE',  ( -3.491481338843133355E-15, 1.224646799147353207E-16, -1.000000000000000000 ) ) ;
#114 = PLANE ( 'NONE',  #262 ) ;
#115 = DIRECTION ( 'NONE',  ( 0.0000000000000000000, 1.000000000000000000, 0.0000000000000000000 ) ) ;
#116 = EDGE_LOOP ( 'NONE', ( #1 ) ) ;
#117 = DIRECTION ( 'NONE',  ( 3.491481338843133355E-15, -1.224646799147353207E-16, 1.000000000000000000 ) ) ;
#118 = VERTEX_POINT ( 'NONE', #43 ) ;
#119 = AXIS2_PLACEMENT_3D ( 'NONE', #200, #62, #68 ) ;
#120 = CIRCLE ( 'NONE', #86, 0.3350000000000000755 ) ;
#121 = ORIENTED_EDGE ( 'NONE', *, *, #22, .T. ) ;
#122 = ADVANCED_FACE ( 'NONE', ( #224 ), #112, .F. ) ;
#123 = DATE_AND_TIME ( #124, #133 ) ;
#124 = CALENDAR_DATE ( 2021, 17, 12 ) ;
#125 = ORIENTED_EDGE ( 'NONE', *, *, #27, .F. ) ;
#126 = LOCAL_TIME ( 11, 59, 30.00000000000000000, #302 ) ;
#127 =( LENGTH_UNIT ( ) NAMED_UNIT ( * ) SI_UNIT ( .MILLI., .METRE. ) );
#128 = CC_DESIGN_SECURITY_CLASSIFICATION ( #29, ( #185 ) ) ;
#129 = AXIS2_PLACEMENT_3D ( 'NONE', #131, #180, #196 ) ;
#130 = ORIENTED_EDGE ( 'NONE', *, *, #172, .T. ) ;
#131 = CARTESIAN_POINT ( 'NONE',  ( 0.0000000000000000000, 0.0000000000000000000, 0.0000000000000000000 ) ) ;
#132 = DIRECTION ( 'NONE',  ( 0.0000000000000000000, 1.000000000000000000, 0.0000000000000000000 ) ) ;
#133 = LOCAL_TIME ( 11, 59, 30.00000000000000000, #77 ) ;
#134 = APPROVAL_DATE_TIME ( #34, #167 ) ;
#135 = DIRECTION ( 'NONE',  ( -4.450224473809939123E-31, -1.000000000000000000, -1.252626830122843967E-16 ) ) ;
#136 = DIRECTION ( 'NONE',  ( -3.491481338843133355E-15, 1.224646799147353207E-16, -1.000000000000000000 ) ) ;
#137 = ADVANCED_FACE ( 'NONE', ( #111, #221 ), #85, .T. ) ;
#138 = CIRCLE ( 'NONE', #159, 0.7999999999999996003 ) ;
#139 = CIRCLE ( 'NONE', #287, 0.8180000000000000604 ) ;
#140 = VERTEX_POINT ( 'NONE', #271 ) ;
#141 = DIRECTION ( 'NONE',  ( -4.275831445896958607E-31, -1.000000000000000000, -1.224646799147353207E-16 ) ) ;
#142 = VERTEX_POINT ( 'NONE', #285 ) ;
#143 = EDGE_LOOP ( 'NONE', ( #193 ) ) ;
#144 = DIRECTION ( 'NONE',  ( 3.491481338843133355E-15, -1.224646799147353207E-16, 1.000000000000000000 ) ) ;
#145 = CARTESIAN_POINT ( 'NONE',  ( 2.234548056859605347E-14, 6.134017511086985327E-33, 6.400000000000000355 ) ) ;
#146 = ORIENTED_EDGE ( 'NONE', *, *, #148, .T. ) ;
#147 = PERSON_AND_ORGANIZATION ( #235, #28 ) ;
#148 = EDGE_CURVE ( 'NONE', #69, #69, #208, .T. ) ;
#149 = PERSON_AND_ORGANIZATION ( #235, #28 ) ;
#150 = CALENDAR_DATE ( 2021, 17, 12 ) ;
#151 = COORDINATED_UNIVERSAL_TIME_OFFSET ( 1, 0, .AHEAD. ) ;
#152 = CC_DESIGN_PERSON_AND_ORGANIZATION_ASSIGNMENT ( #52, #56, ( #185 ) ) ;
#153 = AXIS2_PLACEMENT_3D ( 'NONE', #288, #293, #96 ) ;
#154 = DIRECTION ( 'NONE',  ( 4.275831445896958607E-31, 1.000000000000000000, 1.224646799147353207E-16 ) ) ;
#155 = CC_DESIGN_PERSON_AND_ORGANIZATION_ASSIGNMENT ( #189, #192, ( #44 ) ) ;
#156 = DIRECTION ( 'NONE',  ( 3.491481338843133355E-15, -1.224646799147353207E-16, 1.000000000000000000 ) ) ;
#157 = DIRECTION ( 'NONE',  ( -3.491481338843133355E-15, 1.224646799147353207E-16, -1.000000000000000000 ) ) ;
#158 = DIRECTION ( 'NONE',  ( 4.450224473809939123E-31, 1.000000000000000000, 1.252626830122843967E-16 ) ) ;
#159 = AXIS2_PLACEMENT_3D ( 'NONE', #227, #113, #245 ) ;
#160 = CIRCLE ( 'NONE', #300, 0.8861483474218585510 ) ;
#161 = CARTESIAN_POINT ( 'NONE',  ( 0.0000000000000000000, 0.3350000000000000755, 0.0000000000000000000 ) ) ;
#162 = VERTEX_POINT ( 'NONE', #46 ) ;
#163 = EDGE_CURVE ( 'NONE', #140, #140, #139, .T. ) ;
#164 = APPROVAL_PERSON_ORGANIZATION ( #213, #167, #104 ) ;
#165 = FACE_OUTER_BOUND ( 'NONE', #169, .T. ) ;
#166 = DATE_AND_TIME ( #108, #57 ) ;
#167 = APPROVAL ( #2, 'UNSPECIFIED' ) ;
#168 = APPROVAL_DATE_TIME ( #123, #261 ) ;
#169 = EDGE_LOOP ( 'NONE', ( #58 ) ) ;
#170 = PERSON_AND_ORGANIZATION ( #235, #28 ) ;
#171 = ORIENTED_EDGE ( 'NONE', *, *, #148, .F. ) ;
#172 = EDGE_CURVE ( 'NONE', #250, #250, #120, .T. ) ;
#173 = APPROVAL_STATUS ( 'not_yet_approved' ) ;
#174 = EDGE_LOOP ( 'NONE', ( #175 ) ) ;
#175 = ORIENTED_EDGE ( 'NONE', *, *, #301, .T. ) ;
#176 = AXIS2_PLACEMENT_3D ( 'NONE', #9, #263, #279 ) ;
#177 = AXIS2_PLACEMENT_3D ( 'NONE', #272, #144, #141 ) ;
#178 = FACE_OUTER_BOUND ( 'NONE', #286, .T. ) ;
#179 = DIRECTION ( 'NONE',  ( -4.275831445896958607E-31, -1.000000000000000000, -1.224646799147353207E-16 ) ) ;
#180 = DIRECTION ( 'NONE',  ( -3.491481338843133355E-15, 1.224646799147353207E-16, -1.000000000000000000 ) ) ;
#181 = CARTESIAN_POINT ( 'NONE',  ( 3.052440912659729453E-14, -1.070652147467517233E-15, 8.742538242152324557 ) ) ;
#182 = CARTESIAN_POINT ( 'NONE',  ( 1.319779946082704535E-13, 0.9999999999999947820, 37.79999999999999716 ) ) ;
#183 = DIRECTION ( 'NONE',  ( 3.491481338843133355E-15, -1.224646799147353207E-16, 1.000000000000000000 ) ) ;
#184 = DIRECTION ( 'NONE',  ( -3.491481338843133355E-15, 1.224646799147353207E-16, -1.000000000000000000 ) ) ;
#185 = PRODUCT_DEFINITION_FORMATION_WITH_SPECIFIED_SOURCE ( 'ANY', '', #44, .NOT_KNOWN. ) ;
#186 = TOROIDAL_SURFACE ( 'NONE', #197, 2.818000000000000060, 2.000000000000000888 ) ;
#187 =( NAMED_UNIT ( * ) PLANE_ANGLE_UNIT ( ) SI_UNIT ( $, .RADIAN. ) );
#188 = FACE_OUTER_BOUND ( 'NONE', #283, .T. ) ;
#189 = PERSON_AND_ORGANIZATION ( #235, #28 ) ;
#190 = EDGE_LOOP ( 'NONE', ( #121 ) ) ;
#191 = DATE_TIME_ROLE ( 'classification_date' ) ;
#192 = PERSON_AND_ORGANIZATION_ROLE ( 'design_owner' ) ;
#193 = ORIENTED_EDGE ( 'NONE', *, *, #220, .F. ) ;
#194 = EDGE_LOOP ( 'NONE', ( #260 ) ) ;
#195 = ADVANCED_FACE ( 'NONE', ( #110, #289 ), #248, .T. ) ;
#196 = DIRECTION ( 'NONE',  ( 4.275831445896958607E-31, 1.000000000000000000, 1.224646799147352961E-16 ) ) ;
#197 = AXIS2_PLACEMENT_3D ( 'NONE', #229, #97, #47 ) ;
#198 = DIRECTION ( 'NONE',  ( -3.491481338843133355E-15, 1.224646799147353207E-16, -1.000000000000000000 ) ) ;
#199 = APPROVAL_PERSON_ORGANIZATION ( #149, #253, #81 ) ;
#200 = CARTESIAN_POINT ( 'NONE',  ( 1.326762908760390423E-13, -4.653657836759941941E-15, 38.00000000000000000 ) ) ;
#201 = VERTEX_POINT ( 'NONE', #294 ) ;
#202 = DIRECTION ( 'NONE',  ( -4.275831445896958607E-31, -1.000000000000000000, -1.224646799147353207E-16 ) ) ;
#203 = CC_DESIGN_APPROVAL ( #253, ( #242 ) ) ;
#204 = DIRECTION ( 'NONE',  ( 0.0000000000000000000, -1.000000000000000000, 0.0000000000000000000 ) ) ;
#205 = FACE_OUTER_BOUND ( 'NONE', #194, .T. ) ;
#206 = FACE_OUTER_BOUND ( 'NONE', #217, .T. ) ;
#207 = LOCAL_TIME ( 11, 59, 30.00000000000000000, #53 ) ;
#208 = CIRCLE ( 'NONE', #75, 0.8179999999999998384 ) ;
#209 = AXIS2_PLACEMENT_3D ( 'NONE', #67, #156, #244 ) ;
#210 = APPLICATION_PROTOCOL_DEFINITION ( 'international standard', 'config_control_design', 1994, #6 ) ;
#211 = ORIENTED_EDGE ( 'NONE', *, *, #266, .T. ) ;
#212 = ORIENTED_EDGE ( 'NONE', *, *, #220, .T. ) ;
#213 = PERSON_AND_ORGANIZATION ( #235, #28 ) ;
#214 = EDGE_CURVE ( 'NONE', #45, #45, #160, .T. ) ;
#215 = ORIENTED_EDGE ( 'NONE', *, *, #172, .F. ) ;
#216 = CIRCLE ( 'NONE', #89, 0.8179999999999998384 ) ;
#217 = EDGE_LOOP ( 'NONE', ( #275 ) ) ;
#218 = DIRECTION ( 'NONE',  ( 1.000000000000000000, 0.0000000000000000000, 0.0000000000000000000 ) ) ;
#219 = EDGE_LOOP ( 'NONE', ( #211 ) ) ;
#220 = EDGE_CURVE ( 'NONE', #95, #95, #23, .T. ) ;
#221 = FACE_BOUND ( 'NONE', #174, .T. ) ;
#222 = AXIS2_PLACEMENT_3D ( 'NONE', #236, #4, #218 ) ;
#223 = DIRECTION ( 'NONE',  ( 0.0000000000000000000, 1.000000000000000000, 0.0000000000000000000 ) ) ;
#224 = FACE_OUTER_BOUND ( 'NONE', #101, .T. ) ;
#225 = DESIGN_CONTEXT ( 'detailed design', #6, 'design' ) ;
#226 = DIRECTION ( 'NONE',  ( 0.0000000000000000000, 1.000000000000000000, 0.0000000000000000000 ) ) ;
#227 = CARTESIAN_POINT ( 'NONE',  ( 1.326762908760390423E-13, -4.653657836759941941E-15, 38.00000000000000000 ) ) ;
#228 = ADVANCED_FACE ( 'NONE', ( #233 ), #114, .T. ) ;
#229 = CARTESIAN_POINT ( 'NONE',  ( 2.723355444297644017E-14, -8.673617379884035472E-16, 7.799999999999999822 ) ) ;
#230 = CARTESIAN_POINT ( 'NONE',  ( 3.666055405785290812E-15, 0.8179999999999990612, 1.050000000000000044 ) ) ;
#231 = CIRCLE ( 'NONE', #94, 0.8179999999999991722 ) ;
#232 = FACE_BOUND ( 'NONE', #256, .T. ) ;
#233 = FACE_OUTER_BOUND ( 'NONE', #78, .T. ) ;
#234 = EDGE_LOOP ( 'NONE', ( #215 ) ) ;
#235 = PERSON ( 'UNSPECIFIED', 'UNSPECIFIED', 'UNSPECIFIED', ('UNSPECIFIED'), ('UNSPECIFIED'), ('UNSPECIFIED') ) ;
#236 = CARTESIAN_POINT ( 'NONE',  ( 0.0000000000000000000, 0.0000000000000000000, 0.0000000000000000000 ) ) ;
#237 = SECURITY_CLASSIFICATION_LEVEL ( 'unclassified' ) ;
#238 = CC_DESIGN_DATE_AND_TIME_ASSIGNMENT ( #239, #191, ( #29 ) ) ;
#239 = DATE_AND_TIME ( #150, #207 ) ;
#240 = AXIS2_PLACEMENT_3D ( 'NONE', #181, #277, #115 ) ;
#241 = CARTESIAN_POINT ( 'NONE',  ( 2.904087817520169182E-14, -1.018616886363569289E-15, 8.317638090205027979 ) ) ;
#242 = PRODUCT_DEFINITION ( 'UNKNOWN', '', #185, #225 ) ;
#243 = FACE_OUTER_BOUND ( 'NONE', #84, .T. ) ;
#244 = DIRECTION ( 'NONE',  ( 0.0000000000000000000, -1.000000000000000000, 0.0000000000000000000 ) ) ;
#245 = DIRECTION ( 'NONE',  ( 0.0000000000000000000, 1.000000000000000000, 0.0000000000000000000 ) ) ;
#246 = ADVANCED_FACE ( 'NONE', ( #165, #206 ), #186, .F. ) ;
#247 = AXIS2_PLACEMENT_3D ( 'NONE', #49, #17, #19 ) ;
#248 = CONICAL_SURFACE ( 'NONE', #209, 0.9999999999999965583, 0.2617993877991457996 ) ;
#249 = VERTEX_POINT ( 'NONE', #230 ) ;
#250 = VERTEX_POINT ( 'NONE', #161 ) ;
#251 = EDGE_LOOP ( 'NONE', ( #146 ) ) ;
#252 = PLANE ( 'NONE',  #177 ) ;
#253 = APPROVAL ( #282, 'UNSPECIFIED' ) ;
#254 = FACE_OUTER_BOUND ( 'NONE', #251, .T. ) ;
#255 = APPROVAL_DATE_TIME ( #166, #253 ) ;
#256 = EDGE_LOOP ( 'NONE', ( #125 ) ) ;
#257 = AXIS2_PLACEMENT_3D ( 'NONE', #88, #91, #135 ) ;
#258 = PERSON_AND_ORGANIZATION_ROLE ( 'classification_officer' ) ;
#259 = ORIENTED_EDGE ( 'NONE', *, *, #266, .F. ) ;
#260 = ORIENTED_EDGE ( 'NONE', *, *, #60, .T. ) ;
#261 = APPROVAL ( #173, 'UNSPECIFIED' ) ;
#262 = AXIS2_PLACEMENT_3D ( 'NONE', #145, #183, #202 ) ;
#263 = DIRECTION ( 'NONE',  ( -3.491481338843133355E-15, 1.224646799147353207E-16, -1.000000000000000000 ) ) ;
#264 = DIRECTION ( 'NONE',  ( 3.491481338843133355E-15, -1.224646799147353207E-16, 1.000000000000000000 ) ) ;
#265 = CARTESIAN_POINT ( 'NONE',  ( 2.234548056859605347E-14, -7.837739514543060920E-16, 6.400000000000000355 ) ) ;
#266 = EDGE_CURVE ( 'NONE', #162, #162, #70, .T. ) ;
#267 = DIRECTION ( 'NONE',  ( -3.491481338843133355E-15, 1.224646799147353207E-16, -1.000000000000000000 ) ) ;
#268 = UNCERTAINTY_MEASURE_WITH_UNIT (LENGTH_MEASURE( 1.000000000000000082E-05 ), #127, 'distance_accuracy_value', 'NONE');
#269 = DIRECTION ( 'NONE',  ( -3.491481338843133355E-15, 1.224646799147353207E-16, -1.000000000000000000 ) ) ;
#270 = ADVANCED_FACE ( 'NONE', ( #254 ), #252, .F. ) ;
#271 = CARTESIAN_POINT ( 'NONE',  ( 2.723355444297644017E-14, 0.8179999999999990612, 7.799999999999999822 ) ) ;
#272 = CARTESIAN_POINT ( 'NONE',  ( 2.234548056859605347E-14, 6.134017511086985327E-33, 6.400000000000000355 ) ) ;
#273 = ADVANCED_FACE ( 'NONE', ( #232, #20 ), #276, .T. ) ;
#274 = CYLINDRICAL_SURFACE ( 'NONE', #73, 0.8179999999999995053 ) ;
#275 = ORIENTED_EDGE ( 'NONE', *, *, #214, .T. ) ;
#276 = CONICAL_SURFACE ( 'NONE', #59, 0.8179999999999991722, 0.1919862177193693564 ) ;
#277 = DIRECTION ( 'NONE',  ( -3.491481338843133355E-15, 1.224646799147353207E-16, -1.000000000000000000 ) ) ;
#278 = ADVANCED_FACE ( 'NONE', ( #21, #205 ), #274, .T. ) ;
#279 = DIRECTION ( 'NONE',  ( 4.275831445896958607E-31, 1.000000000000000000, 1.224646799147353207E-16 ) ) ;
#280 =( NAMED_UNIT ( * ) SI_UNIT ( $, .STERADIAN. ) SOLID_ANGLE_UNIT ( ) );
#281 = COORDINATED_UNIVERSAL_TIME_OFFSET ( 1, 0, .AHEAD. ) ;
#282 = APPROVAL_STATUS ( 'not_yet_approved' ) ;
#283 = EDGE_LOOP ( 'NONE', ( #82 ) ) ;
#284 = PRODUCT_RELATED_PRODUCT_CATEGORY ( 'detail', '', ( #44 ) ) ;
#285 = CARTESIAN_POINT ( 'NONE',  ( 1.326762908760390423E-13, 0.7999999999999949374, 38.00000000000000000 ) ) ;
#286 = EDGE_LOOP ( 'NONE', ( #259 ) ) ;
#287 = AXIS2_PLACEMENT_3D ( 'NONE', #90, #269, #132 ) ;
#288 = CARTESIAN_POINT ( 'NONE',  ( 1.319779946082704535E-13, -4.629164900776995227E-15, 37.79999999999999716 ) ) ;
#289 = FACE_OUTER_BOUND ( 'NONE', #219, .T. ) ;
#290 = CARTESIAN_POINT ( 'NONE',  ( -7.162017671877407724E-32, 2.512097635958612041E-33, -2.051283388571817010E-17 ) ) ;
#291 = DIRECTION ( 'NONE',  ( 0.0000000000000000000, 1.000000000000000000, 0.0000000000000000000 ) ) ;
#292 = ADVANCED_FACE ( 'NONE', ( #18, #74 ), #298, .T. ) ;
#293 = DIRECTION ( 'NONE',  ( -3.491481338843133355E-15, 1.224646799147353207E-16, -1.000000000000000000 ) ) ;
#294 = CARTESIAN_POINT ( 'NONE',  ( 2.234548056859605347E-14, 0.8179999999999990612, 6.400000000000000355 ) ) ;
#295 = CARTESIAN_POINT ( 'NONE',  ( 2.904087817520169182E-14, 0.8861483474218575518, 8.317638090205027979 ) ) ;
#296 = CARTESIAN_POINT ( 'NONE',  ( 0.0000000000000000000, 0.0000000000000000000, 0.0000000000000000000 ) ) ;
#297 = ADVANCED_BREP_SHAPE_REPRESENTATION ( '970906', ( #38, #33, #222 ), #51 ) ;
#298 = CYLINDRICAL_SURFACE ( 'NONE', #247, 0.8179999999999999494 ) ;
#299 = APPROVAL_PERSON_ORGANIZATION ( #147, #261, #100 ) ;
#300 = AXIS2_PLACEMENT_3D ( 'NONE', #241, #136, #226 ) ;
#301 = EDGE_CURVE ( 'NONE', #142, #142, #138, .T. ) ;
#302 = COORDINATED_UNIVERSAL_TIME_OFFSET ( 1, 0, .AHEAD. ) ;
#303 = ORIENTED_EDGE ( 'NONE', *, *, #214, .F. ) ;
ENDSEC;
END-ISO-10303-21;
