ISO-10303-21;
HEADER;
FILE_DESCRIPTION (( 'STEP AP203' ),
    '1' );
FILE_NAME ('970905.step',
    '2021-12-17T10:54:18',
    ( '' ),
    ( '' ),
    'SwSTEP 2.0',
    'SolidWorks 2019',
    '' );
FILE_SCHEMA (( 'CONFIG_CONTROL_DESIGN' ));
ENDSEC;

DATA;
#1 = COORDINATED_UNIVERSAL_TIME_OFFSET ( 1, 0, .AHEAD. ) ;
#2 = APPROVAL ( #152, 'UNSPECIFIED' ) ;
#3 = FACE_OUTER_BOUND ( 'NONE', #213, .T. ) ;
#4 = PERSON_AND_ORGANIZATION ( #215, #69 ) ;
#5 = CARTESIAN_POINT ( 'NONE',  ( 2.374207310413330366E-14, -8.673617379884035472E-16, 6.799999999999998934 ) ) ;
#6 = APPROVAL_DATE_TIME ( #235, #82 ) ;
#7 = CARTESIAN_POINT ( 'NONE',  ( -1.575011816740109196E-32, 5.524397792225152088E-34, -4.511013131354650590E-18 ) ) ;
#8 = CALENDAR_DATE ( 2021, 17, 12 ) ;
#9 = FACE_OUTER_BOUND ( 'NONE', #71, .T. ) ;
#10 = APPROVAL_ROLE ( '' ) ;
#11 = CARTESIAN_POINT ( 'NONE',  ( 3.142333204958820414E-15, 0.7129999999999991900, 0.9000000000000001332 ) ) ;
#12 = CONICAL_SURFACE ( 'NONE', #87, 0.7499999999999972244, 0.2617993877991302010 ) ;
#13 = ADVANCED_FACE ( 'NONE', ( #254 ), #280, .T. ) ;
#14 = PRODUCT_DEFINITION_SHAPE ( 'NONE', 'NONE',  #243 ) ;
#15 = CYLINDRICAL_SURFACE ( 'NONE', #117, 0.7499999999999991118 ) ;
#16 = APPROVAL_PERSON_ORGANIZATION ( #4, #82, #268 ) ;
#17 = AXIS2_PLACEMENT_3D ( 'NONE', #143, #123, #41 ) ;
#18 = CARTESIAN_POINT ( 'NONE',  ( 0.0000000000000000000, 0.0000000000000000000, 0.0000000000000000000 ) ) ;
#19 = ORIENTED_EDGE ( 'NONE', *, *, #146, .F. ) ;
#20 = FACE_OUTER_BOUND ( 'NONE', #208, .T. ) ;
#21 = CC_DESIGN_PERSON_AND_ORGANIZATION_ASSIGNMENT ( #131, #283, ( #111 ) ) ;
#22 = EDGE_LOOP ( 'NONE', ( #257 ) ) ;
#23 = EDGE_LOOP ( 'NONE', ( #210 ) ) ;
#24 = CC_DESIGN_PERSON_AND_ORGANIZATION_ASSIGNMENT ( #259, #238, ( #243 ) ) ;
#25 = CIRCLE ( 'NONE', #201, 0.7500000000000011102 ) ;
#26 = CARTESIAN_POINT ( 'NONE',  ( 1.321525686752126196E-13, -4.635288134772732300E-15, 37.85000000000000853 ) ) ;
#27 = PLANE ( 'NONE',  #80 ) ;
#28 = APPROVAL_STATUS ( 'not_yet_approved' ) ;
#29 = FACE_OUTER_BOUND ( 'NONE', #23, .T. ) ;
#30 = COORDINATED_UNIVERSAL_TIME_OFFSET ( 1, 0, .AHEAD. ) ;
#31 = APPROVAL ( #28, 'UNSPECIFIED' ) ;
#32 = DIRECTION ( 'NONE',  ( 0.0000000000000000000, 1.000000000000000000, 0.0000000000000000000 ) ) ;
#33 = DIRECTION ( 'NONE',  ( -5.079079346070440168E-31, -1.000000000000000000, -1.429633740646751052E-16 ) ) ;
#34 = FACE_OUTER_BOUND ( 'NONE', #145, .T. ) ;
#35 = AXIS2_PLACEMENT_3D ( 'NONE', #18, #207, #277 ) ;
#36 = TOROIDAL_SURFACE ( 'NONE', #199, 1.713000000000000300, 1.000000000000000000 ) ;
#37 = DIRECTION ( 'NONE',  ( 0.0000000000000000000, 1.000000000000000000, 0.0000000000000000000 ) ) ;
#38 = CARTESIAN_POINT ( 'NONE',  ( 2.374207310413330366E-14, 0.7129999999999991900, 6.799999999999999822 ) ) ;
#39 = MANIFOLD_SOLID_BREP ( 'Corps-Déplacer/Copier1[1]', #292 ) ;
#40 = APPLICATION_PROTOCOL_DEFINITION ( 'international standard', 'config_control_design', 1994, #134 ) ;
#41 = DIRECTION ( 'NONE',  ( -4.275831445896958607E-31, -1.000000000000000000, -1.224646799147353207E-16 ) ) ;
#42 = MANIFOLD_SOLID_BREP ( 'Corps-Déplacer/Copier1[2]', #179 ) ;
#43 = FACE_OUTER_BOUND ( 'NONE', #168, .T. ) ;
#44 = ORIENTED_EDGE ( 'NONE', *, *, #146, .T. ) ;
#45 = EDGE_LOOP ( 'NONE', ( #120 ) ) ;
#46 = CC_DESIGN_DATE_AND_TIME_ASSIGNMENT ( #150, #218, ( #243 ) ) ;
#47 = EDGE_LOOP ( 'NONE', ( #231 ) ) ;
#48 = DIRECTION ( 'NONE',  ( 4.275831445896959482E-31, 1.000000000000000000, 1.224646799147353207E-16 ) ) ;
#49 = AXIS2_PLACEMENT_3D ( 'NONE', #222, #171, #33 ) ;
#50 = DIRECTION ( 'NONE',  ( -3.491481338843133355E-15, 1.224646799147353207E-16, -1.000000000000000000 ) ) ;
#51 = CARTESIAN_POINT ( 'NONE',  ( 3.142333204958820020E-15, -1.102182119232617788E-16, 0.9000000000000000222 ) ) ;
#52 = PERSON_AND_ORGANIZATION ( #215, #69 ) ;
#53 = DIRECTION ( 'NONE',  ( -3.491481338843133355E-15, 1.224646799147353207E-16, -1.000000000000000000 ) ) ;
#54 = AXIS2_PLACEMENT_3D ( 'NONE', #7, #78, #155 ) ;
#55 = DIRECTION ( 'NONE',  ( -3.491481338843133355E-15, 1.224646799147353207E-16, -1.000000000000000000 ) ) ;
#56 = APPROVAL_DATE_TIME ( #244, #31 ) ;
#57 = DIRECTION ( 'NONE',  ( -3.491481338843133355E-15, 1.224646799147353207E-16, -1.000000000000000000 ) ) ;
#58 = ADVANCED_FACE ( 'NONE', ( #279, #20 ), #12, .T. ) ;
#59 =( NAMED_UNIT ( * ) PLANE_ANGLE_UNIT ( ) SI_UNIT ( $, .RADIAN. ) );
#60 = PRODUCT ( '970905', '970905', '', ( #300 ) ) ;
#61 = APPROVAL_PERSON_ORGANIZATION ( #52, #31, #74 ) ;
#62 = FACE_OUTER_BOUND ( 'NONE', #72, .T. ) ;
#63 = CARTESIAN_POINT ( 'NONE',  ( 1.955229549752154679E-14, 0.7129999999999991900, 5.599999999999999645 ) ) ;
#64 = DIRECTION ( 'NONE',  ( 0.0000000000000000000, 1.000000000000000000, 0.0000000000000000000 ) ) ;
#65 = AXIS2_PLACEMENT_3D ( 'NONE', #248, #181, #156 ) ;
#66 = ORIENTED_EDGE ( 'NONE', *, *, #89, .T. ) ;
#67 = ORIENTED_EDGE ( 'NONE', *, *, #195, .T. ) ;
#68 = ADVANCED_FACE ( 'NONE', ( #43, #184 ), #36, .F. ) ;
#69 = ORGANIZATION ( 'UNSPECIFIED', 'UNSPECIFIED', '' ) ;
#70 = AXIS2_PLACEMENT_3D ( 'NONE', #83, #269, #114 ) ;
#71 = EDGE_LOOP ( 'NONE', ( #187 ) ) ;
#72 = EDGE_LOOP ( 'NONE', ( #182 ) ) ;
#73 = FACE_BOUND ( 'NONE', #303, .T. ) ;
#74 = APPROVAL_ROLE ( '' ) ;
#75 = FACE_BOUND ( 'NONE', #302, .T. ) ;
#76 = CC_DESIGN_PERSON_AND_ORGANIZATION_ASSIGNMENT ( #191, #193, ( #116 ) ) ;
#77 = DATE_AND_TIME ( #288, #97 ) ;
#78 = DIRECTION ( 'NONE',  ( 3.491481338843133355E-15, -1.224646799147353207E-16, 1.000000000000000000 ) ) ;
#79 = DIRECTION ( 'NONE',  ( 0.0000000000000000000, 1.000000000000000000, 0.0000000000000000000 ) ) ;
#80 = AXIS2_PLACEMENT_3D ( 'NONE', #287, #154, #224 ) ;
#81 = AXIS2_PLACEMENT_3D ( 'NONE', #200, #57, #64 ) ;
#82 = APPROVAL ( #169, 'UNSPECIFIED' ) ;
#83 = CARTESIAN_POINT ( 'NONE',  ( 0.0000000000000000000, 0.0000000000000000000, 0.0000000000000000000 ) ) ;
#84 = FACE_OUTER_BOUND ( 'NONE', #125, .T. ) ;
#85 = ORIENTED_EDGE ( 'NONE', *, *, #129, .F. ) ;
#86 = LOCAL_TIME ( 11, 54, 18.00000000000000000, #172 ) ;
#87 = AXIS2_PLACEMENT_3D ( 'NONE', #230, #167, #96 ) ;
#88 = VERTEX_POINT ( 'NONE', #113 ) ;
#89 = EDGE_CURVE ( 'NONE', #88, #88, #98, .T. ) ;
#90 = CYLINDRICAL_SURFACE ( 'NONE', #70, 0.7129999999999996341 ) ;
#91 = CC_DESIGN_APPROVAL ( #2, ( #111 ) ) ;
#92 = CONICAL_SURFACE ( 'NONE', #209, 0.7129999999999993010, 0.1919862177193692732 ) ;
#93 = ADVANCED_FACE ( 'NONE', ( #170, #194 ), #239, .T. ) ;
#94 = ORIENTED_EDGE ( 'NONE', *, *, #253, .T. ) ;
#95 = ORIENTED_EDGE ( 'NONE', *, *, #273, .F. ) ;
#96 = DIRECTION ( 'NONE',  ( 0.0000000000000000000, -1.000000000000000000, 0.0000000000000000000 ) ) ;
#97 = LOCAL_TIME ( 11, 54, 18.00000000000000000, #1 ) ;
#98 = CIRCLE ( 'NONE', #206, 0.6000000000000009770 ) ;
#99 = AXIS2_PLACEMENT_3D ( 'NONE', #237, #50, #106 ) ;
#100 = FACE_OUTER_BOUND ( 'NONE', #22, .T. ) ;
#101 = DIRECTION ( 'NONE',  ( -3.491481338843133355E-15, 1.224646799147353207E-16, -1.000000000000000000 ) ) ;
#102 = DATE_TIME_ROLE ( 'classification_date' ) ;
#103 = ADVANCED_FACE ( 'NONE', ( #100, #258 ), #217, .T. ) ;
#104 = FACE_OUTER_BOUND ( 'NONE', #127, .T. ) ;
#105 = CALENDAR_DATE ( 2021, 17, 12 ) ;
#106 = DIRECTION ( 'NONE',  ( 5.079079346070440168E-31, 1.000000000000000000, 1.429633740646751052E-16 ) ) ;
#107 = DATE_AND_TIME ( #8, #121 ) ;
#108 = CARTESIAN_POINT ( 'NONE',  ( 1.326762908760390423E-13, -4.653657836759941941E-15, 38.00000000000000000 ) ) ;
#109 = PERSON_AND_ORGANIZATION ( #215, #69 ) ;
#110 = VERTEX_POINT ( 'NONE', #205 ) ;
#111 = SECURITY_CLASSIFICATION ( '', '', #290 ) ;
#112 = AXIS2_PLACEMENT_3D ( 'NONE', #192, #234, #48 ) ;
#113 = CARTESIAN_POINT ( 'NONE',  ( 1.326762908760390423E-13, 0.5999999999999963141, 38.00000000000000000 ) ) ;
#114 = DIRECTION ( 'NONE',  ( 4.275831445896959482E-31, 1.000000000000000000, 1.224646799147353207E-16 ) ) ;
#115 = EDGE_CURVE ( 'NONE', #204, #204, #228, .T. ) ;
#116 = PRODUCT_DEFINITION_FORMATION_WITH_SPECIFIED_SOURCE ( 'ANY', '', #60, .NOT_KNOWN. ) ;
#117 = AXIS2_PLACEMENT_3D ( 'NONE', #162, #180, #275 ) ;
#118 = VERTEX_POINT ( 'NONE', #203 ) ;
#119 = ADVANCED_FACE ( 'NONE', ( #104 ), #27, .F. ) ;
#120 = ORIENTED_EDGE ( 'NONE', *, *, #273, .T. ) ;
#121 = LOCAL_TIME ( 11, 54, 18.00000000000000000, #221 ) ;
#122 = AXIS2_PLACEMENT_3D ( 'NONE', #190, #282, #147 ) ;
#123 = DIRECTION ( 'NONE',  ( 3.491481338843133355E-15, -1.224646799147353207E-16, 1.000000000000000000 ) ) ;
#124 = ORIENTED_EDGE ( 'NONE', *, *, #299, .T. ) ;
#125 = EDGE_LOOP ( 'NONE', ( #94 ) ) ;
#126 = CONICAL_SURFACE ( 'NONE', #293, 0.6000000000000009770, 0.7853981633974803644 ) ;
#127 = EDGE_LOOP ( 'NONE', ( #256 ) ) ;
#128 = DIRECTION ( 'NONE',  ( -3.491481338843133355E-15, 1.224646799147353207E-16, -1.000000000000000000 ) ) ;
#129 = EDGE_CURVE ( 'NONE', #118, #118, #249, .T. ) ;
#130 = DIRECTION ( 'NONE',  ( -3.491481338843133355E-15, 1.224646799147353207E-16, -1.000000000000000000 ) ) ;
#131 = PERSON_AND_ORGANIZATION ( #215, #69 ) ;
#132 = DIRECTION ( 'NONE',  ( 0.0000000000000000000, 1.000000000000000000, 0.0000000000000000000 ) ) ;
#133 = PERSON_AND_ORGANIZATION ( #215, #69 ) ;
#134 = APPLICATION_CONTEXT ( 'configuration controlled 3d designs of mechanical parts and assemblies' ) ;
#135 = DIRECTION ( 'NONE',  ( 5.402328034746810187E-31, 1.000000000000000000, 1.520620157763682395E-16 ) ) ;
#136 = CARTESIAN_POINT ( 'NONE',  ( 1.326762908760390423E-13, -4.653657836759941941E-15, 38.00000000000000000 ) ) ;
#137 = CARTESIAN_POINT ( 'NONE',  ( 2.468385961543066322E-14, -8.657932474774690678E-16, 7.069738377467429835 ) ) ;
#138 = APPLICATION_PROTOCOL_DEFINITION ( 'international standard', 'config_control_design', 1994, #236 ) ;
#139 = CARTESIAN_POINT ( 'NONE',  ( 2.468385961543066322E-14, 0.7499999999999963363, 7.069738377467429835 ) ) ;
#140 = CIRCLE ( 'NONE', #266, 0.7129999999999993010 ) ;
#141 = VERTEX_POINT ( 'NONE', #11 ) ;
#142 = ADVANCED_FACE ( 'NONE', ( #75, #262 ), #92, .T. ) ;
#143 = CARTESIAN_POINT ( 'NONE',  ( 1.955229549752154679E-14, 5.346643625189511862E-33, 5.599999999999999645 ) ) ;
#144 =( GEOMETRIC_REPRESENTATION_CONTEXT ( 3 ) GLOBAL_UNCERTAINTY_ASSIGNED_CONTEXT ( ( #274 ) ) GLOBAL_UNIT_ASSIGNED_CONTEXT ( ( #298, #59, #226 ) ) REPRESENTATION_CONTEXT ( 'NONE', 'WORKASPACE' ) );
#145 = EDGE_LOOP ( 'NONE', ( #67 ) ) ;
#146 = EDGE_CURVE ( 'NONE', #160, #160, #286, .T. ) ;
#147 = DIRECTION ( 'NONE',  ( 4.275831445896958607E-31, 1.000000000000000000, 1.224646799147352961E-16 ) ) ;
#148 = EDGE_CURVE ( 'NONE', #141, #141, #140, .T. ) ;
#149 = CALENDAR_DATE ( 2021, 17, 12 ) ;
#150 = DATE_AND_TIME ( #149, #153 ) ;
#151 = CARTESIAN_POINT ( 'NONE',  ( 3.142333204958820020E-15, -1.102182119232617788E-16, 0.9000000000000000222 ) ) ;
#152 = APPROVAL_STATUS ( 'not_yet_approved' ) ;
#153 = LOCAL_TIME ( 11, 54, 18.00000000000000000, #30 ) ;
#154 = DIRECTION ( 'NONE',  ( 3.491481338843133355E-15, -1.224646799147353207E-16, 1.000000000000000000 ) ) ;
#155 = DIRECTION ( 'NONE',  ( -4.275831445896958607E-31, -1.000000000000000000, -1.224646799147353207E-16 ) ) ;
#156 = DIRECTION ( 'NONE',  ( 0.0000000000000000000, 1.000000000000000000, 0.0000000000000000000 ) ) ;
#157 = CARTESIAN_POINT ( 'NONE',  ( 1.955229549752154679E-14, 0.7129999999999991900, 5.599999999999999645 ) ) ;
#158 = AXIS2_PLACEMENT_3D ( 'NONE', #289, #101, #284 ) ;
#159 = DESIGN_CONTEXT ( 'detailed design', #134, 'design' ) ;
#160 = VERTEX_POINT ( 'NONE', #38 ) ;
#161 = EDGE_CURVE ( 'NONE', #110, #110, #214, .T. ) ;
#162 = CARTESIAN_POINT ( 'NONE',  ( 0.0000000000000000000, 0.0000000000000000000, 0.0000000000000000000 ) ) ;
#163 = AXIS2_PLACEMENT_3D ( 'NONE', #233, #55, #189 ) ;
#164 = PERSON_AND_ORGANIZATION ( #215, #69 ) ;
#165 = EDGE_LOOP ( 'NONE', ( #44 ) ) ;
#166 = ORIENTED_EDGE ( 'NONE', *, *, #253, .F. ) ;
#167 = DIRECTION ( 'NONE',  ( 3.491481338843133355E-15, -1.224646799147353207E-16, 1.000000000000000000 ) ) ;
#168 = EDGE_LOOP ( 'NONE', ( #19 ) ) ;
#169 = APPROVAL_STATUS ( 'not_yet_approved' ) ;
#170 = FACE_BOUND ( 'NONE', #252, .T. ) ;
#171 = DIRECTION ( 'NONE',  ( 3.491481338843133355E-15, -1.224646799147353207E-16, 1.000000000000000000 ) ) ;
#172 = COORDINATED_UNIVERSAL_TIME_OFFSET ( 1, 0, .AHEAD. ) ;
#173 = DIRECTION ( 'NONE',  ( 4.275831445896958607E-31, 1.000000000000000000, 1.224646799147353207E-16 ) ) ;
#174 = ADVANCED_FACE ( 'NONE', ( #29 ), #220, .F. ) ;
#175 = AXIS2_PLACEMENT_3D ( 'NONE', #264, #53, #32 ) ;
#176 = FACE_OUTER_BOUND ( 'NONE', #178, .T. ) ;
#177 = CIRCLE ( 'NONE', #65, 0.7129999999999998561 ) ;
#178 = EDGE_LOOP ( 'NONE', ( #297 ) ) ;
#179 = CLOSED_SHELL ( 'NONE', ( #174, #93, #142, #227, #13 ) ) ;
#180 = DIRECTION ( 'NONE',  ( -3.491481338843133355E-15, 1.224646799147353207E-16, -1.000000000000000000 ) ) ;
#181 = DIRECTION ( 'NONE',  ( -3.491481338843133355E-15, 1.224646799147353207E-16, -1.000000000000000000 ) ) ;
#182 = ORIENTED_EDGE ( 'NONE', *, *, #299, .F. ) ;
#183 = ORIENTED_EDGE ( 'NONE', *, *, #161, .F. ) ;
#184 = FACE_OUTER_BOUND ( 'NONE', #45, .T. ) ;
#185 = ADVANCED_FACE ( 'NONE', ( #9, #73 ), #126, .T. ) ;
#186 = LOCAL_TIME ( 11, 54, 18.00000000000000000, #241 ) ;
#187 = ORIENTED_EDGE ( 'NONE', *, *, #195, .F. ) ;
#188 = ADVANCED_FACE ( 'NONE', ( #176 ), #267, .F. ) ;
#189 = DIRECTION ( 'NONE',  ( 4.275831445896958607E-31, 1.000000000000000000, 1.224646799147353207E-16 ) ) ;
#190 = CARTESIAN_POINT ( 'NONE',  ( -3.150023633480218392E-32, 1.104879558445030418E-33, -9.022026262709301181E-18 ) ) ;
#191 = PERSON_AND_ORGANIZATION ( #215, #69 ) ;
#192 = CARTESIAN_POINT ( 'NONE',  ( 0.0000000000000000000, 0.0000000000000000000, 0.0000000000000000000 ) ) ;
#193 = PERSON_AND_ORGANIZATION_ROLE ( 'creator' ) ;
#194 = FACE_OUTER_BOUND ( 'NONE', #301, .T. ) ;
#195 = EDGE_CURVE ( 'NONE', #295, #295, #25, .T. ) ;
#196 = APPROVAL_DATE_TIME ( #107, #2 ) ;
#197 = DIRECTION ( 'NONE',  ( -3.491481338843133355E-15, 1.224646799147353207E-16, -1.000000000000000000 ) ) ;
#198 = APPROVAL_PERSON_ORGANIZATION ( #133, #2, #10 ) ;
#199 = AXIS2_PLACEMENT_3D ( 'NONE', #5, #291, #173 ) ;
#200 = CARTESIAN_POINT ( 'NONE',  ( 2.464573497024592948E-14, -8.644560149345168307E-16, 7.058819045102512568 ) ) ;
#201 = AXIS2_PLACEMENT_3D ( 'NONE', #26, #128, #216 ) ;
#202 = CC_DESIGN_PERSON_AND_ORGANIZATION_ASSIGNMENT ( #109, #263, ( #116 ) ) ;
#203 = CARTESIAN_POINT ( 'NONE',  ( 9.463679131915808972E-32, 0.2949999999999999845, 2.710505431213761085E-17 ) ) ;
#204 = VERTEX_POINT ( 'NONE', #157 ) ;
#205 = CARTESIAN_POINT ( 'NONE',  ( 5.518942456844153323E-16, 0.5687831828844968074, 0.1580687943379585347 ) ) ;
#206 = AXIS2_PLACEMENT_3D ( 'NONE', #136, #130, #132 ) ;
#207 = DIRECTION ( 'NONE',  ( 0.0000000000000000000, 0.0000000000000000000, 1.000000000000000000 ) ) ;
#208 = EDGE_LOOP ( 'NONE', ( #124 ) ) ;
#209 = AXIS2_PLACEMENT_3D ( 'NONE', #51, #242, #240 ) ;
#210 = ORIENTED_EDGE ( 'NONE', *, *, #129, .T. ) ;
#211 = EDGE_LOOP ( 'NONE', ( #166 ) ) ;
#212 = ADVANCED_BREP_SHAPE_REPRESENTATION ( '970905', ( #39, #42, #35 ), #144 ) ;
#213 = EDGE_LOOP ( 'NONE', ( #272 ) ) ;
#214 = CIRCLE ( 'NONE', #99, 0.5687831828844968074 ) ;
#215 = PERSON ( 'UNSPECIFIED', 'UNSPECIFIED', 'UNSPECIFIED', ('UNSPECIFIED'), ('UNSPECIFIED'), ('UNSPECIFIED') ) ;
#216 = DIRECTION ( 'NONE',  ( 0.0000000000000000000, 1.000000000000000000, 0.0000000000000000000 ) ) ;
#217 = CYLINDRICAL_SURFACE ( 'NONE', #112, 0.7129999999999999671 ) ;
#218 = DATE_TIME_ROLE ( 'creation_date' ) ;
#219 = CC_DESIGN_PERSON_AND_ORGANIZATION_ASSIGNMENT ( #164, #251, ( #60 ) ) ;
#220 = PLANE ( 'NONE',  #54 ) ;
#221 = COORDINATED_UNIVERSAL_TIME_OFFSET ( 1, 0, .AHEAD. ) ;
#222 = CARTESIAN_POINT ( 'NONE',  ( 5.518942456844150365E-16, -1.935784430310620773E-17, 0.1580687943379584515 ) ) ;
#223 = SHAPE_DEFINITION_REPRESENTATION ( #14, #212 ) ;
#224 = DIRECTION ( 'NONE',  ( -4.275831445896958607E-31, -1.000000000000000000, -1.224646799147353207E-16 ) ) ;
#225 = DIRECTION ( 'NONE',  ( -3.491481338843133355E-15, 1.224646799147353207E-16, -1.000000000000000000 ) ) ;
#226 =( NAMED_UNIT ( * ) SI_UNIT ( $, .STERADIAN. ) SOLID_ANGLE_UNIT ( ) );
#227 = ADVANCED_FACE ( 'NONE', ( #3, #84 ), #90, .T. ) ;
#228 = CIRCLE ( 'NONE', #175, 0.7129999999999998561 ) ;
#229 = CIRCLE ( 'NONE', #81, 0.7470741737109309888 ) ;
#230 = CARTESIAN_POINT ( 'NONE',  ( 2.468385961543066322E-14, -8.657932474774690678E-16, 7.069738377467429835 ) ) ;
#231 = ORIENTED_EDGE ( 'NONE', *, *, #148, .T. ) ;
#232 = EDGE_LOOP ( 'NONE', ( #95 ) ) ;
#233 = CARTESIAN_POINT ( 'NONE',  ( 1.326762908760390423E-13, 4.499279347985510559E-33, 38.00000000000000000 ) ) ;
#234 = DIRECTION ( 'NONE',  ( -3.491481338843133355E-15, 1.224646799147353207E-16, -1.000000000000000000 ) ) ;
#235 = DATE_AND_TIME ( #285, #86 ) ;
#236 = APPLICATION_CONTEXT ( 'configuration controlled 3d designs of mechanical parts and assemblies' ) ;
#237 = CARTESIAN_POINT ( 'NONE',  ( 5.518942456844150365E-16, -1.935784430310620773E-17, 0.1580687943379584515 ) ) ;
#238 = PERSON_AND_ORGANIZATION_ROLE ( 'creator' ) ;
#239 = CONICAL_SURFACE ( 'NONE', #49, 0.5687831828844968074, 1.047197551196593190 ) ;
#240 = DIRECTION ( 'NONE',  ( -5.402328034746810187E-31, -1.000000000000000000, -1.520620157763682395E-16 ) ) ;
#241 = COORDINATED_UNIVERSAL_TIME_OFFSET ( 1, 0, .AHEAD. ) ;
#242 = DIRECTION ( 'NONE',  ( 3.491481338843133355E-15, -1.224646799147353207E-16, 1.000000000000000000 ) ) ;
#243 = PRODUCT_DEFINITION ( 'UNKNOWN', '', #116, #159 ) ;
#244 = DATE_AND_TIME ( #105, #186 ) ;
#245 = CC_DESIGN_APPROVAL ( #82, ( #243 ) ) ;
#246 = CARTESIAN_POINT ( 'NONE',  ( 1.321525686752126196E-13, 0.7499999999999964473, 37.85000000000000853 ) ) ;
#247 = CARTESIAN_POINT ( 'NONE',  ( 2.464573497024592948E-14, 0.7470741737109301006, 7.058819045102512568 ) ) ;
#248 = CARTESIAN_POINT ( 'NONE',  ( 1.955229549752154679E-14, -6.858022075225177566E-16, 5.599999999999999645 ) ) ;
#249 = CIRCLE ( 'NONE', #122, 0.2949999999999999845 ) ;
#250 = CIRCLE ( 'NONE', #281, 0.7499999999999972244 ) ;
#251 = PERSON_AND_ORGANIZATION_ROLE ( 'design_owner' ) ;
#252 = EDGE_LOOP ( 'NONE', ( #85 ) ) ;
#253 = EDGE_CURVE ( 'NONE', #294, #294, #177, .T. ) ;
#254 = FACE_OUTER_BOUND ( 'NONE', #211, .T. ) ;
#255 = CC_DESIGN_APPROVAL ( #31, ( #116 ) ) ;
#256 = ORIENTED_EDGE ( 'NONE', *, *, #115, .T. ) ;
#257 = ORIENTED_EDGE ( 'NONE', *, *, #115, .F. ) ;
#258 = FACE_OUTER_BOUND ( 'NONE', #165, .T. ) ;
#259 = PERSON_AND_ORGANIZATION ( #215, #69 ) ;
#260 = DIRECTION ( 'NONE',  ( -3.491481338843133355E-15, 1.224646799147353207E-16, -1.000000000000000000 ) ) ;
#261 = PRODUCT_RELATED_PRODUCT_CATEGORY ( 'detail', '', ( #60 ) ) ;
#262 = FACE_OUTER_BOUND ( 'NONE', #47, .T. ) ;
#263 = PERSON_AND_ORGANIZATION_ROLE ( 'design_supplier' ) ;
#264 = CARTESIAN_POINT ( 'NONE',  ( 1.955229549752154679E-14, -6.858022075225177566E-16, 5.599999999999999645 ) ) ;
#265 = CC_DESIGN_SECURITY_CLASSIFICATION ( #111, ( #116 ) ) ;
#266 = AXIS2_PLACEMENT_3D ( 'NONE', #151, #260, #135 ) ;
#267 = PLANE ( 'NONE',  #163 ) ;
#268 = APPROVAL_ROLE ( '' ) ;
#269 = DIRECTION ( 'NONE',  ( -3.491481338843133355E-15, 1.224646799147353207E-16, -1.000000000000000000 ) ) ;
#270 = VERTEX_POINT ( 'NONE', #139 ) ;
#271 = VERTEX_POINT ( 'NONE', #247 ) ;
#272 = ORIENTED_EDGE ( 'NONE', *, *, #148, .F. ) ;
#273 = EDGE_CURVE ( 'NONE', #271, #271, #229, .T. ) ;
#274 = UNCERTAINTY_MEASURE_WITH_UNIT (LENGTH_MEASURE( 1.000000000000000082E-05 ), #298, 'distance_accuracy_value', 'NONE');
#275 = DIRECTION ( 'NONE',  ( 4.275831445896958607E-31, 1.000000000000000000, 1.224646799147353207E-16 ) ) ;
#276 = ADVANCED_FACE ( 'NONE', ( #62, #34 ), #15, .T. ) ;
#277 = DIRECTION ( 'NONE',  ( 1.000000000000000000, 0.0000000000000000000, 0.0000000000000000000 ) ) ;
#278 = ORIENTED_EDGE ( 'NONE', *, *, #161, .T. ) ;
#279 = FACE_BOUND ( 'NONE', #232, .T. ) ;
#280 = PLANE ( 'NONE',  #17 ) ;
#281 = AXIS2_PLACEMENT_3D ( 'NONE', #137, #225, #37 ) ;
#282 = DIRECTION ( 'NONE',  ( -3.491481338843133355E-15, 1.224646799147353207E-16, -1.000000000000000000 ) ) ;
#283 = PERSON_AND_ORGANIZATION_ROLE ( 'classification_officer' ) ;
#284 = DIRECTION ( 'NONE',  ( 0.0000000000000000000, 1.000000000000000000, 0.0000000000000000000 ) ) ;
#285 = CALENDAR_DATE ( 2021, 17, 12 ) ;
#286 = CIRCLE ( 'NONE', #158, 0.7130000000000000782 ) ;
#287 = CARTESIAN_POINT ( 'NONE',  ( 1.955229549752154679E-14, 5.346643625189511862E-33, 5.599999999999999645 ) ) ;
#288 = CALENDAR_DATE ( 2021, 17, 12 ) ;
#289 = CARTESIAN_POINT ( 'NONE',  ( 2.374207310413330366E-14, -8.327598234202001119E-16, 6.799999999999999822 ) ) ;
#290 = SECURITY_CLASSIFICATION_LEVEL ( 'unclassified' ) ;
#291 = DIRECTION ( 'NONE',  ( -3.491481338843133355E-15, 1.224646799147353207E-16, -1.000000000000000000 ) ) ;
#292 = CLOSED_SHELL ( 'NONE', ( #119, #103, #68, #58, #276, #185, #188 ) ) ;
#293 = AXIS2_PLACEMENT_3D ( 'NONE', #108, #197, #79 ) ;
#294 = VERTEX_POINT ( 'NONE', #63 ) ;
#295 = VERTEX_POINT ( 'NONE', #246 ) ;
#296 = CC_DESIGN_DATE_AND_TIME_ASSIGNMENT ( #77, #102, ( #111 ) ) ;
#297 = ORIENTED_EDGE ( 'NONE', *, *, #89, .F. ) ;
#298 =( LENGTH_UNIT ( ) NAMED_UNIT ( * ) SI_UNIT ( .MILLI., .METRE. ) );
#299 = EDGE_CURVE ( 'NONE', #270, #270, #250, .T. ) ;
#300 = MECHANICAL_CONTEXT ( 'NONE', #236, 'mechanical' ) ;
#301 = EDGE_LOOP ( 'NONE', ( #278 ) ) ;
#302 = EDGE_LOOP ( 'NONE', ( #183 ) ) ;
#303 = EDGE_LOOP ( 'NONE', ( #66 ) ) ;
ENDSEC;
END-ISO-10303-21;
