ISO-10303-21;
HEADER;
FILE_DESCRIPTION (( 'STEP AP203' ),
    '1' );
FILE_NAME ('970904.step',
    '2021-12-17T10:54:17',
    ( '' ),
    ( '' ),
    'SwSTEP 2.0',
    'SolidWorks 2019',
    '' );
FILE_SCHEMA (( 'CONFIG_CONTROL_DESIGN' ));
ENDSEC;

DATA;
#1 = PRODUCT_RELATED_PRODUCT_CATEGORY ( 'detail', '', ( #189 ) ) ;
#2 = PERSON_AND_ORGANIZATION_ROLE ( 'design_supplier' ) ;
#3 = EDGE_LOOP ( 'NONE', ( #240 ) ) ;
#4 = CIRCLE ( 'NONE', #129, 0.6079999999999998739 ) ;
#5 = LOCAL_TIME ( 11, 54, 17.00000000000000000, #187 ) ;
#6 = DATE_TIME_ROLE ( 'classification_date' ) ;
#7 = ORIENTED_EDGE ( 'NONE', *, *, #144, .T. ) ;
#8 =( NAMED_UNIT ( * ) PLANE_ANGLE_UNIT ( ) SI_UNIT ( $, .RADIAN. ) );
#9 = EDGE_LOOP ( 'NONE', ( #85 ) ) ;
#10 = AXIS2_PLACEMENT_3D ( 'NONE', #207, #269, #72 ) ;
#11 = FACE_OUTER_BOUND ( 'NONE', #287, .T. ) ;
#12 = CC_DESIGN_PERSON_AND_ORGANIZATION_ASSIGNMENT ( #286, #239, ( #204 ) ) ;
#13 = DIRECTION ( 'NONE',  ( 3.491481338843133355E-15, -1.224646799147353207E-16, 1.000000000000000000 ) ) ;
#14 = FACE_BOUND ( 'NONE', #243, .T. ) ;
#15 = AXIS2_PLACEMENT_3D ( 'NONE', #297, #13, #291 ) ;
#16 = MANIFOLD_SOLID_BREP ( 'Corps-Déplacer/Copier1[2]', #103 ) ;
#17 = FACE_OUTER_BOUND ( 'NONE', #245, .T. ) ;
#18 = CARTESIAN_POINT ( 'NONE',  ( 4.818612983517282556E-16, -1.690141917971581394E-17, 0.1380105610163129548 ) ) ;
#19 = CARTESIAN_POINT ( 'NONE',  ( 0.0000000000000000000, 0.0000000000000000000, 0.0000000000000000000 ) ) ;
#20 = CIRCLE ( 'NONE', #296, 0.4890413036613358577 ) ;
#21 = DIRECTION ( 'NONE',  ( -3.491481338843133355E-15, 1.224646799147353207E-16, -1.000000000000000000 ) ) ;
#22 = EDGE_CURVE ( 'NONE', #257, #257, #4, .T. ) ;
#23 = CARTESIAN_POINT ( 'NONE',  ( 0.0000000000000000000, 0.0000000000000000000, 0.0000000000000000000 ) ) ;
#24 = CARTESIAN_POINT ( 'NONE',  ( 2.618611004132349622E-15, -9.184850993605148438E-17, 0.7499999999999998890 ) ) ;
#25 = AXIS2_PLACEMENT_3D ( 'NONE', #211, #116, #213 ) ;
#26 = CALENDAR_DATE ( 2021, 17, 12 ) ;
#27 = ORIENTED_EDGE ( 'NONE', *, *, #82, .T. ) ;
#28 = APPLICATION_PROTOCOL_DEFINITION ( 'international standard', 'config_control_design', 1994, #262 ) ;
#29 = EDGE_LOOP ( 'NONE', ( #127 ) ) ;
#30 = PERSON_AND_ORGANIZATION ( #138, #261 ) ;
#31 = EDGE_LOOP ( 'NONE', ( #221 ) ) ;
#32 = APPROVAL_PERSON_ORGANIZATION ( #192, #264, #168 ) ;
#33 = AXIS2_PLACEMENT_3D ( 'NONE', #155, #271, #67 ) ;
#34 = ORIENTED_EDGE ( 'NONE', *, *, #63, .T. ) ;
#35 = APPROVAL_STATUS ( 'not_yet_approved' ) ;
#36 = ORIENTED_EDGE ( 'NONE', *, *, #144, .F. ) ;
#37 = COORDINATED_UNIVERSAL_TIME_OFFSET ( 1, 0, .AHEAD. ) ;
#38 = DIRECTION ( 'NONE',  ( 3.491481338843133355E-15, -1.224646799147353207E-16, 1.000000000000000000 ) ) ;
#39 = ADVANCED_FACE ( 'NONE', ( #201 ), #151, .F. ) ;
#40 = TOROIDAL_SURFACE ( 'NONE', #157, 2.608000000000000096, 2.000000000000000000 ) ;
#41 = CARTESIAN_POINT ( 'NONE',  ( 2.025059176529017031E-14, -8.673617379884035472E-16, 5.799999999999999822 ) ) ;
#42 = DIRECTION ( 'NONE',  ( 0.0000000000000000000, 1.000000000000000000, 0.0000000000000000000 ) ) ;
#43 = DIRECTION ( 'NONE',  ( -3.491481338843133355E-15, 1.224646799147353207E-16, -1.000000000000000000 ) ) ;
#44 = CIRCLE ( 'NONE', #171, 0.7499999999999971134 ) ;
#45 = FACE_BOUND ( 'NONE', #31, .T. ) ;
#46 = DIRECTION ( 'NONE',  ( 0.0000000000000000000, 1.000000000000000000, 0.0000000000000000000 ) ) ;
#47 = FACE_OUTER_BOUND ( 'NONE', #104, .T. ) ;
#48 = ADVANCED_FACE ( 'NONE', ( #64, #275 ), #295, .T. ) ;
#49 = AXIS2_PLACEMENT_3D ( 'NONE', #175, #110, #113 ) ;
#50 = CC_DESIGN_APPROVAL ( #142, ( #204 ) ) ;
#51 = VERTEX_POINT ( 'NONE', #52 ) ;
#52 = CARTESIAN_POINT ( 'NONE',  ( 2.205791549751542826E-14, 0.6761483474218588086, 6.317638090205027979 ) ) ;
#53 = ADVANCED_FACE ( 'NONE', ( #11, #14 ), #203, .T. ) ;
#54 = DIRECTION ( 'NONE',  ( 4.275831445896958607E-31, 1.000000000000000000, 1.224646799147353207E-16 ) ) ;
#55 = MECHANICAL_CONTEXT ( 'NONE', #262, 'mechanical' ) ;
#56 = LOCAL_TIME ( 11, 54, 17.00000000000000000, #215 ) ;
#57 = PERSON_AND_ORGANIZATION ( #138, #261 ) ;
#58 = APPROVAL_DATE_TIME ( #222, #142 ) ;
#59 = EDGE_LOOP ( 'NONE', ( #195 ) ) ;
#60 = AXIS2_PLACEMENT_3D ( 'NONE', #108, #270, #227 ) ;
#61 = ORIENTED_EDGE ( 'NONE', *, *, #132, .T. ) ;
#62 = EDGE_LOOP ( 'NONE', ( #223 ) ) ;
#63 = EDGE_CURVE ( 'NONE', #208, #208, #161, .T. ) ;
#64 = FACE_BOUND ( 'NONE', #62, .T. ) ;
#65 = DIRECTION ( 'NONE',  ( 3.491481338843133355E-15, -1.224646799147353207E-16, 1.000000000000000000 ) ) ;
#66 = CIRCLE ( 'NONE', #88, 0.6079999999999995408 ) ;
#67 = DIRECTION ( 'NONE',  ( 0.0000000000000000000, 1.000000000000000000, 0.0000000000000000000 ) ) ;
#68 = FACE_BOUND ( 'NONE', #3, .T. ) ;
#69 = CARTESIAN_POINT ( 'NONE',  ( 2.302023101890138060E-14, -8.074410113350686666E-16, 6.593256209849570837 ) ) ;
#70 = AXIS2_PLACEMENT_3D ( 'NONE', #225, #43, #178 ) ;
#71 = APPROVAL_PERSON_ORGANIZATION ( #265, #142, #105 ) ;
#72 = DIRECTION ( 'NONE',  ( 0.0000000000000000000, 1.000000000000000000, 0.0000000000000000000 ) ) ;
#73 = CARTESIAN_POINT ( 'NONE',  ( 1.042207179644675275E-13, 0.7499999999999947820, 29.84999999999999787 ) ) ;
#74 = APPROVAL ( #288, 'UNSPECIFIED' ) ;
#75 = CARTESIAN_POINT ( 'NONE',  ( 9.463679131915807877E-32, 0.2500000000000000555, 2.710505431213761085E-17 ) ) ;
#76 = AXIS2_PLACEMENT_3D ( 'NONE', #89, #65, #206 ) ;
#77 = CARTESIAN_POINT ( 'NONE',  ( 4.818612983517282556E-16, -1.690141917971581394E-17, 0.1380105610163129548 ) ) ;
#78 = FACE_OUTER_BOUND ( 'NONE', #285, .T. ) ;
#79 = PERSON_AND_ORGANIZATION ( #138, #261 ) ;
#80 = ORIENTED_EDGE ( 'NONE', *, *, #193, .T. ) ;
#81 = PERSON_AND_ORGANIZATION_ROLE ( 'creator' ) ;
#82 = EDGE_CURVE ( 'NONE', #51, #51, #111, .T. ) ;
#83 = EDGE_LOOP ( 'NONE', ( #106 ) ) ;
#84 = APPROVAL_STATUS ( 'not_yet_approved' ) ;
#85 = ORIENTED_EDGE ( 'NONE', *, *, #199, .T. ) ;
#86 = APPROVAL_ROLE ( '' ) ;
#87 = EDGE_LOOP ( 'NONE', ( #128 ) ) ;
#88 = AXIS2_PLACEMENT_3D ( 'NONE', #24, #122, #277 ) ;
#89 = CARTESIAN_POINT ( 'NONE',  ( 1.675911042644703695E-14, 4.559269739292038397E-33, 4.799999999999999822 ) ) ;
#90 = FACE_OUTER_BOUND ( 'NONE', #29, .T. ) ;
#91 = UNCERTAINTY_MEASURE_WITH_UNIT (LENGTH_MEASURE( 1.000000000000000082E-05 ), #164, 'distance_accuracy_value', 'NONE');
#92 = CARTESIAN_POINT ( 'NONE',  ( 1.675911042644703695E-14, -5.878304635907294211E-16, 4.799999999999999822 ) ) ;
#93 = PLANE ( 'NONE',  #152 ) ;
#94 = CYLINDRICAL_SURFACE ( 'NONE', #231, 0.6079999999999997629 ) ;
#95 = CC_DESIGN_APPROVAL ( #264, ( #217 ) ) ;
#96 = ADVANCED_FACE ( 'NONE', ( #90, #200 ), #94, .T. ) ;
#97 = CARTESIAN_POINT ( 'NONE',  ( -1.225899482826591103E-32, 4.299876562471958112E-34, -3.511115666546223951E-18 ) ) ;
#98 = VERTEX_POINT ( 'NONE', #182 ) ;
#99 = FACE_OUTER_BOUND ( 'NONE', #167, .T. ) ;
#100 = SECURITY_CLASSIFICATION_LEVEL ( 'unclassified' ) ;
#101 = APPLICATION_CONTEXT ( 'configuration controlled 3d designs of mechanical parts and assemblies' ) ;
#102 =( NAMED_UNIT ( * ) SI_UNIT ( $, .STERADIAN. ) SOLID_ANGLE_UNIT ( ) );
#103 = CLOSED_SHELL ( 'NONE', ( #210, #186, #48, #96, #137 ) ) ;
#104 = EDGE_LOOP ( 'NONE', ( #34 ) ) ;
#105 = APPROVAL_ROLE ( '' ) ;
#106 = ORIENTED_EDGE ( 'NONE', *, *, #293, .T. ) ;
#107 = AXIS2_PLACEMENT_3D ( 'NONE', #19, #278, #54 ) ;
#108 = CARTESIAN_POINT ( 'NONE',  ( 1.047444401652940007E-13, -3.673940397442059178E-15, 30.00000000000000000 ) ) ;
#109 = CARTESIAN_POINT ( 'NONE',  ( 0.0000000000000000000, 0.0000000000000000000, 0.0000000000000000000 ) ) ;
#110 = DIRECTION ( 'NONE',  ( 3.491481338843133355E-15, -1.224646799147353207E-16, 1.000000000000000000 ) ) ;
#111 = CIRCLE ( 'NONE', #70, 0.6761483474218594747 ) ;
#112 = CIRCLE ( 'NONE', #10, 0.6079999999999998739 ) ;
#113 = DIRECTION ( 'NONE',  ( -4.275831445896958607E-31, -1.000000000000000000, -1.224646799147353207E-16 ) ) ;
#114 = DIRECTION ( 'NONE',  ( 3.491481338843133355E-15, -1.224646799147353207E-16, 1.000000000000000000 ) ) ;
#115 = ADVANCED_FACE ( 'NONE', ( #68, #17 ), #135, .T. ) ;
#116 = DIRECTION ( 'NONE',  ( 3.491481338843133355E-15, -1.224646799147353207E-16, 1.000000000000000000 ) ) ;
#117 = AXIS2_PLACEMENT_3D ( 'NONE', #23, #259, #302 ) ;
#118 = CARTESIAN_POINT ( 'NONE',  ( 1.675911042644703695E-14, 0.6079999999999994298, 4.799999999999999822 ) ) ;
#119 = CARTESIAN_POINT ( 'NONE',  ( 2.025059176529017031E-14, 0.6079999999999994298, 5.799999999999999822 ) ) ;
#120 = PLANE ( 'NONE',  #25 ) ;
#121 = APPROVAL_PERSON_ORGANIZATION ( #57, #74, #86 ) ;
#122 = DIRECTION ( 'NONE',  ( -3.491481338843133355E-15, 1.224646799147353207E-16, -1.000000000000000000 ) ) ;
#123 = DIRECTION ( 'NONE',  ( 1.000000000000000000, 0.0000000000000000000, 0.0000000000000000000 ) ) ;
#124 = CC_DESIGN_DATE_AND_TIME_ASSIGNMENT ( #219, #6, ( #217 ) ) ;
#125 = COORDINATED_UNIVERSAL_TIME_OFFSET ( 1, 0, .AHEAD. ) ;
#126 = LOCAL_TIME ( 11, 54, 17.00000000000000000, #125 ) ;
#127 = ORIENTED_EDGE ( 'NONE', *, *, #293, .F. ) ;
#128 = ORIENTED_EDGE ( 'NONE', *, *, #132, .F. ) ;
#129 = AXIS2_PLACEMENT_3D ( 'NONE', #92, #274, #224 ) ;
#130 = DIRECTION ( 'NONE',  ( -6.335295869694859896E-31, -1.000000000000000000, -1.783227257377475838E-16 ) ) ;
#131 = DIRECTION ( 'NONE',  ( 4.275831445896958607E-31, 1.000000000000000000, 1.224646799147352961E-16 ) ) ;
#132 = EDGE_CURVE ( 'NONE', #141, #141, #300, .T. ) ;
#133 = DIRECTION ( 'NONE',  ( -3.491481338843133355E-15, 1.224646799147353207E-16, -1.000000000000000000 ) ) ;
#134 = DIRECTION ( 'NONE',  ( -3.491481338843133355E-15, 1.224646799147353207E-16, -1.000000000000000000 ) ) ;
#135 = CONICAL_SURFACE ( 'NONE', #15, 0.7499999999999971134, 0.2617993877991420804 ) ;
#136 = FACE_OUTER_BOUND ( 'NONE', #9, .T. ) ;
#137 = ADVANCED_FACE ( 'NONE', ( #299 ), #250, .T. ) ;
#138 = PERSON ( 'UNSPECIFIED', 'UNSPECIFIED', 'UNSPECIFIED', ('UNSPECIFIED'), ('UNSPECIFIED'), ('UNSPECIFIED') ) ;
#139 = VERTEX_POINT ( 'NONE', #118 ) ;
#140 = AXIS2_PLACEMENT_3D ( 'NONE', #172, #236, #123 ) ;
#141 = VERTEX_POINT ( 'NONE', #159 ) ;
#142 = APPROVAL ( #35, 'UNSPECIFIED' ) ;
#143 = DATE_AND_TIME ( #26, #5 ) ;
#144 = EDGE_CURVE ( 'NONE', #256, #256, #44, .T. ) ;
#145 = APPROVAL_DATE_TIME ( #143, #74 ) ;
#146 = EDGE_LOOP ( 'NONE', ( #80 ) ) ;
#147 = ORIENTED_EDGE ( 'NONE', *, *, #63, .F. ) ;
#148 = PERSON_AND_ORGANIZATION ( #138, #261 ) ;
#149 = SHAPE_DEFINITION_REPRESENTATION ( #233, #248 ) ;
#150 = FACE_OUTER_BOUND ( 'NONE', #266, .T. ) ;
#151 = PLANE ( 'NONE',  #49 ) ;
#152 = AXIS2_PLACEMENT_3D ( 'NONE', #179, #156, #253 ) ;
#153 = CC_DESIGN_PERSON_AND_ORGANIZATION_ASSIGNMENT ( #191, #284, ( #189 ) ) ;
#154 = CARTESIAN_POINT ( 'NONE',  ( 1.042207179644675275E-13, -3.655570695454848748E-15, 29.84999999999999787 ) ) ;
#155 = CARTESIAN_POINT ( 'NONE',  ( 1.047444401652940007E-13, -3.673940397442059178E-15, 30.00000000000000000 ) ) ;
#156 = DIRECTION ( 'NONE',  ( -3.491481338843133355E-15, 1.224646799147353207E-16, -1.000000000000000000 ) ) ;
#157 = AXIS2_PLACEMENT_3D ( 'NONE', #41, #134, #298 ) ;
#158 = CARTESIAN_POINT ( 'NONE',  ( 1.675911042644703695E-14, 0.6079999999999994298, 4.799999999999999822 ) ) ;
#159 = CARTESIAN_POINT ( 'NONE',  ( 1.047444401652940007E-13, 0.5999999999999949818, 30.00000000000000000 ) ) ;
#160 = VERTEX_POINT ( 'NONE', #119 ) ;
#161 = CIRCLE ( 'NONE', #241, 0.7499999999999984457 ) ;
#162 = CARTESIAN_POINT ( 'NONE',  ( 2.302023101890138060E-14, 0.7499999999999963363, 6.593256209849570837 ) ) ;
#163 = AXIS2_PLACEMENT_3D ( 'NONE', #18, #114, #246 ) ;
#164 =( LENGTH_UNIT ( ) NAMED_UNIT ( * ) SI_UNIT ( .MILLI., .METRE. ) );
#165 = ORIENTED_EDGE ( 'NONE', *, *, #229, .T. ) ;
#166 = CALENDAR_DATE ( 2021, 17, 12 ) ;
#167 = EDGE_LOOP ( 'NONE', ( #165 ) ) ;
#168 = APPROVAL_ROLE ( '' ) ;
#169 = EDGE_LOOP ( 'NONE', ( #237 ) ) ;
#170 = ADVANCED_FACE ( 'NONE', ( #252, #150 ), #40, .F. ) ;
#171 = AXIS2_PLACEMENT_3D ( 'NONE', #69, #249, #42 ) ;
#172 = CARTESIAN_POINT ( 'NONE',  ( 0.0000000000000000000, 0.0000000000000000000, 0.0000000000000000000 ) ) ;
#173 = EDGE_LOOP ( 'NONE', ( #198 ) ) ;
#174 = CC_DESIGN_PERSON_AND_ORGANIZATION_ASSIGNMENT ( #79, #235, ( #217 ) ) ;
#175 = CARTESIAN_POINT ( 'NONE',  ( 1.675911042644703695E-14, 4.559269739292038397E-33, 4.799999999999999822 ) ) ;
#176 = DIRECTION ( 'NONE',  ( -3.491481338843133355E-15, 1.224646799147353207E-16, -1.000000000000000000 ) ) ;
#177 = LOCAL_TIME ( 11, 54, 17.00000000000000000, #244 ) ;
#178 = DIRECTION ( 'NONE',  ( 0.0000000000000000000, 1.000000000000000000, 0.0000000000000000000 ) ) ;
#179 = CARTESIAN_POINT ( 'NONE',  ( 1.047444401652940007E-13, 4.499279347985507822E-33, 30.00000000000000000 ) ) ;
#180 = FACE_OUTER_BOUND ( 'NONE', #190, .T. ) ;
#181 = CYLINDRICAL_SURFACE ( 'NONE', #117, 0.6079999999999999849 ) ;
#182 = CARTESIAN_POINT ( 'NONE',  ( 4.818612983517284528E-16, 0.4890413036613358577, 0.1380105610163130103 ) ) ;
#183 = ADVANCED_FACE ( 'NONE', ( #226 ), #93, .F. ) ;
#184 = AXIS2_PLACEMENT_3D ( 'NONE', #232, #21, #46 ) ;
#185 = FACE_OUTER_BOUND ( 'NONE', #220, .T. ) ;
#186 = ADVANCED_FACE ( 'NONE', ( #45, #136 ), #197, .T. ) ;
#187 = COORDINATED_UNIVERSAL_TIME_OFFSET ( 1, 0, .AHEAD. ) ;
#188 = DATE_AND_TIME ( #166, #177 ) ;
#189 = PRODUCT ( '970904', '970904', '', ( #55 ) ) ;
#190 = EDGE_LOOP ( 'NONE', ( #36 ) ) ;
#191 = PERSON_AND_ORGANIZATION ( #138, #261 ) ;
#192 = PERSON_AND_ORGANIZATION ( #138, #261 ) ;
#193 = EDGE_CURVE ( 'NONE', #139, #139, #112, .T. ) ;
#194 = APPLICATION_PROTOCOL_DEFINITION ( 'international standard', 'config_control_design', 1994, #101 ) ;
#195 = ORIENTED_EDGE ( 'NONE', *, *, #238, .F. ) ;
#196 = AXIS2_PLACEMENT_3D ( 'NONE', #294, #38, #130 ) ;
#197 = CONICAL_SURFACE ( 'NONE', #163, 0.4890413036613358577, 1.047197551196592524 ) ;
#198 = ORIENTED_EDGE ( 'NONE', *, *, #22, .F. ) ;
#199 = EDGE_CURVE ( 'NONE', #98, #98, #20, .T. ) ;
#200 = FACE_OUTER_BOUND ( 'NONE', #169, .T. ) ;
#201 = FACE_OUTER_BOUND ( 'NONE', #146, .T. ) ;
#202 = DESIGN_CONTEXT ( 'detailed design', #101, 'design' ) ;
#203 = CONICAL_SURFACE ( 'NONE', #60, 0.5999999999999986455, 0.7853981633974450594 ) ;
#204 = PRODUCT_DEFINITION_FORMATION_WITH_SPECIFIED_SOURCE ( 'ANY', '', #189, .NOT_KNOWN. ) ;
#205 = DIRECTION ( 'NONE',  ( 0.0000000000000000000, 1.000000000000000000, 0.0000000000000000000 ) ) ;
#206 = DIRECTION ( 'NONE',  ( -4.275831445896958607E-31, -1.000000000000000000, -1.224646799147353207E-16 ) ) ;
#207 = CARTESIAN_POINT ( 'NONE',  ( 1.675911042644703695E-14, -5.878304635907294211E-16, 4.799999999999999822 ) ) ;
#208 = VERTEX_POINT ( 'NONE', #73 ) ;
#209 = CIRCLE ( 'NONE', #247, 0.2500000000000000555 ) ;
#210 = ADVANCED_FACE ( 'NONE', ( #99 ), #120, .F. ) ;
#211 = CARTESIAN_POINT ( 'NONE',  ( -6.129497414132955513E-33, 2.149938281235979056E-34, -1.755557833273111976E-18 ) ) ;
#212 = VERTEX_POINT ( 'NONE', #263 ) ;
#213 = DIRECTION ( 'NONE',  ( -4.275831445896958607E-31, -1.000000000000000000, -1.224646799147353207E-16 ) ) ;
#214 = CIRCLE ( 'NONE', #184, 0.6080000000000000959 ) ;
#215 = COORDINATED_UNIVERSAL_TIME_OFFSET ( 1, 0, .AHEAD. ) ;
#216 = MANIFOLD_SOLID_BREP ( 'Corps-Déplacer/Copier1[1]', #260 ) ;
#217 = SECURITY_CLASSIFICATION ( '', '', #100 ) ;
#218 = PRODUCT_DEFINITION ( 'UNKNOWN', '', #204, #202 ) ;
#219 = DATE_AND_TIME ( #283, #126 ) ;
#220 = EDGE_LOOP ( 'NONE', ( #290 ) ) ;
#221 = ORIENTED_EDGE ( 'NONE', *, *, #229, .F. ) ;
#222 = DATE_AND_TIME ( #267, #56 ) ;
#223 = ORIENTED_EDGE ( 'NONE', *, *, #199, .F. ) ;
#224 = DIRECTION ( 'NONE',  ( 0.0000000000000000000, 1.000000000000000000, 0.0000000000000000000 ) ) ;
#225 = CARTESIAN_POINT ( 'NONE',  ( 2.205791549751542826E-14, -7.736875265340984999E-16, 6.317638090205027979 ) ) ;
#226 = FACE_OUTER_BOUND ( 'NONE', #87, .T. ) ;
#227 = DIRECTION ( 'NONE',  ( 0.0000000000000000000, 1.000000000000000000, 0.0000000000000000000 ) ) ;
#228 = DIRECTION ( 'NONE',  ( 3.938174403610199526E-31, 1.000000000000000000, 1.108497548538682494E-16 ) ) ;
#229 = EDGE_CURVE ( 'NONE', #279, #279, #209, .T. ) ;
#230 = DIRECTION ( 'NONE',  ( -3.491481338843133355E-15, 1.224646799147353207E-16, -1.000000000000000000 ) ) ;
#231 = AXIS2_PLACEMENT_3D ( 'NONE', #109, #133, #131 ) ;
#232 = CARTESIAN_POINT ( 'NONE',  ( 2.025059176529017031E-14, -7.102951435054647665E-16, 5.799999999999999822 ) ) ;
#233 = PRODUCT_DEFINITION_SHAPE ( 'NONE', 'NONE',  #218 ) ;
#234 = LOCAL_TIME ( 11, 54, 17.00000000000000000, #37 ) ;
#235 = PERSON_AND_ORGANIZATION_ROLE ( 'classification_officer' ) ;
#236 = DIRECTION ( 'NONE',  ( 0.0000000000000000000, 0.0000000000000000000, 1.000000000000000000 ) ) ;
#237 = ORIENTED_EDGE ( 'NONE', *, *, #22, .T. ) ;
#238 = EDGE_CURVE ( 'NONE', #160, #160, #214, .T. ) ;
#239 = PERSON_AND_ORGANIZATION_ROLE ( 'creator' ) ;
#240 = ORIENTED_EDGE ( 'NONE', *, *, #82, .F. ) ;
#241 = AXIS2_PLACEMENT_3D ( 'NONE', #154, #176, #205 ) ;
#242 = CC_DESIGN_SECURITY_CLASSIFICATION ( #217, ( #204 ) ) ;
#243 = EDGE_LOOP ( 'NONE', ( #61 ) ) ;
#244 = COORDINATED_UNIVERSAL_TIME_OFFSET ( 1, 0, .AHEAD. ) ;
#245 = EDGE_LOOP ( 'NONE', ( #7 ) ) ;
#246 = DIRECTION ( 'NONE',  ( -3.938174403610199526E-31, -1.000000000000000000, -1.108497548538682494E-16 ) ) ;
#247 = AXIS2_PLACEMENT_3D ( 'NONE', #97, #230, #303 ) ;
#248 = ADVANCED_BREP_SHAPE_REPRESENTATION ( '970904', ( #216, #16, #140 ), #258 ) ;
#249 = DIRECTION ( 'NONE',  ( -3.491481338843133355E-15, 1.224646799147353207E-16, -1.000000000000000000 ) ) ;
#250 = PLANE ( 'NONE',  #76 ) ;
#251 = APPROVAL_DATE_TIME ( #292, #264 ) ;
#252 = FACE_OUTER_BOUND ( 'NONE', #59, .T. ) ;
#253 = DIRECTION ( 'NONE',  ( 4.275831445896958607E-31, 1.000000000000000000, 1.224646799147353207E-16 ) ) ;
#254 = CYLINDRICAL_SURFACE ( 'NONE', #107, 0.7499999999999978906 ) ;
#255 = ADVANCED_FACE ( 'NONE', ( #185, #78 ), #181, .T. ) ;
#256 = VERTEX_POINT ( 'NONE', #162 ) ;
#257 = VERTEX_POINT ( 'NONE', #158 ) ;
#258 =( GEOMETRIC_REPRESENTATION_CONTEXT ( 3 ) GLOBAL_UNCERTAINTY_ASSIGNED_CONTEXT ( ( #91 ) ) GLOBAL_UNIT_ASSIGNED_CONTEXT ( ( #164, #8, #102 ) ) REPRESENTATION_CONTEXT ( 'NONE', 'WORKASPACE' ) );
#259 = DIRECTION ( 'NONE',  ( -3.491481338843133355E-15, 1.224646799147353207E-16, -1.000000000000000000 ) ) ;
#260 = CLOSED_SHELL ( 'NONE', ( #39, #255, #170, #115, #272, #53, #183 ) ) ;
#261 = ORGANIZATION ( 'UNSPECIFIED', 'UNSPECIFIED', '' ) ;
#262 = APPLICATION_CONTEXT ( 'configuration controlled 3d designs of mechanical parts and assemblies' ) ;
#263 = CARTESIAN_POINT ( 'NONE',  ( 2.618611004132350016E-15, 0.6079999999999994298, 0.7500000000000000000 ) ) ;
#264 = APPROVAL ( #84, 'UNSPECIFIED' ) ;
#265 = PERSON_AND_ORGANIZATION ( #138, #261 ) ;
#266 = EDGE_LOOP ( 'NONE', ( #27 ) ) ;
#267 = CALENDAR_DATE ( 2021, 17, 12 ) ;
#268 = ORIENTED_EDGE ( 'NONE', *, *, #238, .T. ) ;
#269 = DIRECTION ( 'NONE',  ( -3.491481338843133355E-15, 1.224646799147353207E-16, -1.000000000000000000 ) ) ;
#270 = DIRECTION ( 'NONE',  ( -3.491481338843133355E-15, 1.224646799147353207E-16, -1.000000000000000000 ) ) ;
#271 = DIRECTION ( 'NONE',  ( -3.491481338843133355E-15, 1.224646799147353207E-16, -1.000000000000000000 ) ) ;
#272 = ADVANCED_FACE ( 'NONE', ( #180, #47 ), #254, .T. ) ;
#273 = CALENDAR_DATE ( 2021, 17, 12 ) ;
#274 = DIRECTION ( 'NONE',  ( -3.491481338843133355E-15, 1.224646799147353207E-16, -1.000000000000000000 ) ) ;
#275 = FACE_OUTER_BOUND ( 'NONE', #83, .T. ) ;
#276 = CC_DESIGN_DATE_AND_TIME_ASSIGNMENT ( #188, #281, ( #218 ) ) ;
#277 = DIRECTION ( 'NONE',  ( 6.335295869694859896E-31, 1.000000000000000000, 1.783227257377475838E-16 ) ) ;
#278 = DIRECTION ( 'NONE',  ( -3.491481338843133355E-15, 1.224646799147353207E-16, -1.000000000000000000 ) ) ;
#279 = VERTEX_POINT ( 'NONE', #75 ) ;
#280 = CC_DESIGN_PERSON_AND_ORGANIZATION_ASSIGNMENT ( #148, #81, ( #218 ) ) ;
#281 = DATE_TIME_ROLE ( 'creation_date' ) ;
#282 = CC_DESIGN_PERSON_AND_ORGANIZATION_ASSIGNMENT ( #30, #2, ( #204 ) ) ;
#283 = CALENDAR_DATE ( 2021, 17, 12 ) ;
#284 = PERSON_AND_ORGANIZATION_ROLE ( 'design_owner' ) ;
#285 = EDGE_LOOP ( 'NONE', ( #268 ) ) ;
#286 = PERSON_AND_ORGANIZATION ( #138, #261 ) ;
#287 = EDGE_LOOP ( 'NONE', ( #147 ) ) ;
#288 = APPROVAL_STATUS ( 'not_yet_approved' ) ;
#289 = CC_DESIGN_APPROVAL ( #74, ( #218 ) ) ;
#290 = ORIENTED_EDGE ( 'NONE', *, *, #193, .F. ) ;
#291 = DIRECTION ( 'NONE',  ( 0.0000000000000000000, -1.000000000000000000, 0.0000000000000000000 ) ) ;
#292 = DATE_AND_TIME ( #273, #234 ) ;
#293 = EDGE_CURVE ( 'NONE', #212, #212, #66, .T. ) ;
#294 = CARTESIAN_POINT ( 'NONE',  ( 2.618611004132349622E-15, -9.184850993605148438E-17, 0.7499999999999998890 ) ) ;
#295 = CONICAL_SURFACE ( 'NONE', #196, 0.6079999999999995408, 0.1919862177193694674 ) ;
#296 = AXIS2_PLACEMENT_3D ( 'NONE', #77, #301, #228 ) ;
#297 = CARTESIAN_POINT ( 'NONE',  ( 2.302023101890138060E-14, -8.074410113350686666E-16, 6.593256209849570837 ) ) ;
#298 = DIRECTION ( 'NONE',  ( 4.391088800077773202E-31, 1.000000000000000000, 1.224646799147353207E-16 ) ) ;
#299 = FACE_OUTER_BOUND ( 'NONE', #173, .T. ) ;
#300 = CIRCLE ( 'NONE', #33, 0.5999999999999986455 ) ;
#301 = DIRECTION ( 'NONE',  ( -3.491481338843133355E-15, 1.224646799147353207E-16, -1.000000000000000000 ) ) ;
#302 = DIRECTION ( 'NONE',  ( 4.275831445896958607E-31, 1.000000000000000000, 1.224646799147353207E-16 ) ) ;
#303 = DIRECTION ( 'NONE',  ( 4.275831445896958607E-31, 1.000000000000000000, 1.224646799147353207E-16 ) ) ;
ENDSEC;
END-ISO-10303-21;
