ISO-10303-21;
HEADER;
FILE_DESCRIPTION (( 'STEP AP203' ),
    '1' );
FILE_NAME ('970902.step',
    '2021-12-17T10:17:54',
    ( '' ),
    ( '' ),
    'SwSTEP 2.0',
    'SolidWorks 2019',
    '' );
FILE_SCHEMA (( 'CONFIG_CONTROL_DESIGN' ));
ENDSEC;

DATA;
#1 = CONICAL_SURFACE ( 'NONE', #17, 0.4579999999999996296, 0.1919862177193697728 ) ;
#2 = CYLINDRICAL_SURFACE ( 'NONE', #277, 0.7499999999999978906 ) ;
#3 = EDGE_LOOP ( 'NONE', ( #89 ) ) ;
#4 = CC_DESIGN_PERSON_AND_ORGANIZATION_ASSIGNMENT ( #170, #147, ( #7 ) ) ;
#5 = ORIENTED_EDGE ( 'NONE', *, *, #298, .F. ) ;
#6 = PERSON_AND_ORGANIZATION_ROLE ( 'design_owner' ) ;
#7 = PRODUCT_DEFINITION_FORMATION_WITH_SPECIFIED_SOURCE ( 'ANY', '', #215, .NOT_KNOWN. ) ;
#8 = AXIS2_PLACEMENT_3D ( 'NONE', #64, #137, #85 ) ;
#9 = DIRECTION ( 'NONE',  ( -3.491481338843133355E-15, 1.224646799147353207E-16, -1.000000000000000000 ) ) ;
#10 = CARTESIAN_POINT ( 'NONE',  ( 1.042207179644675275E-13, -3.655570695454848748E-15, 29.84999999999999787 ) ) ;
#11 = MANIFOLD_SOLID_BREP ( 'Corps-Déplacer/Copier1[1]', #41 ) ;
#12 = DIRECTION ( 'NONE',  ( 3.491481338843133355E-15, -1.224646799147353207E-16, 1.000000000000000000 ) ) ;
#13 = DIRECTION ( 'NONE',  ( -4.197930176419034428E-31, -1.000000000000000000, -1.181612298640507749E-16 ) ) ;
#14 = CIRCLE ( 'NONE', #188, 0.7499999999999971134 ) ;
#15 = FACE_OUTER_BOUND ( 'NONE', #53, .T. ) ;
#16 = DIRECTION ( 'NONE',  ( 0.0000000000000000000, 1.000000000000000000, 0.0000000000000000000 ) ) ;
#17 = AXIS2_PLACEMENT_3D ( 'NONE', #152, #12, #124 ) ;
#18 = DIRECTION ( 'NONE',  ( -4.275831445896958607E-31, -1.000000000000000000, -1.224646799147353207E-16 ) ) ;
#19 = PRODUCT_DEFINITION_SHAPE ( 'NONE', 'NONE',  #42 ) ;
#20 = VERTEX_POINT ( 'NONE', #303 ) ;
#21 = DIRECTION ( 'NONE',  ( -3.491481338843133355E-15, 1.224646799147353207E-16, -1.000000000000000000 ) ) ;
#22 = PERSON_AND_ORGANIZATION ( #168, #251 ) ;
#23 = ORIENTED_EDGE ( 'NONE', *, *, #272, .T. ) ;
#24 = VERTEX_POINT ( 'NONE', #143 ) ;
#25 = ORIENTED_EDGE ( 'NONE', *, *, #153, .T. ) ;
#26 = CONICAL_SURFACE ( 'NONE', #182, 0.3440856321061027678, 1.047197551196593190 ) ;
#27 = PERSON_AND_ORGANIZATION ( #168, #251 ) ;
#28 = EDGE_LOOP ( 'NONE', ( #238 ) ) ;
#29 = PERSON_AND_ORGANIZATION ( #168, #251 ) ;
#30 = DIRECTION ( 'NONE',  ( 4.275831445896958607E-31, 1.000000000000000000, 1.224646799147353207E-16 ) ) ;
#31 = CIRCLE ( 'NONE', #113, 0.4579999999999996296 ) ;
#32 = FACE_OUTER_BOUND ( 'NONE', #3, .T. ) ;
#33 = CARTESIAN_POINT ( 'NONE',  ( -1.696120090623159331E-32, 5.949188434269026198E-34, -4.857881013865453957E-18 ) ) ;
#34 = CARTESIAN_POINT ( 'NONE',  ( 3.106070022492212462E-16, -1.089462707033398598E-17, 0.08896138117471298623 ) ) ;
#35 = PLANE ( 'NONE',  #120 ) ;
#36 = LOCAL_TIME ( 11, 17, 54.00000000000000000, #279 ) ;
#37 = AXIS2_PLACEMENT_3D ( 'NONE', #33, #56, #128 ) ;
#38 = CARTESIAN_POINT ( 'NONE',  ( 1.751898975701935175E-14, -6.144834426449425904E-16, 5.017638090205028156 ) ) ;
#39 = FACE_OUTER_BOUND ( 'NONE', #74, .T. ) ;
#40 = LOCAL_TIME ( 11, 17, 54.00000000000000000, #95 ) ;
#41 = CLOSED_SHELL ( 'NONE', ( #158, #54, #205, #301, #264, #97, #195 ) ) ;
#42 = PRODUCT_DEFINITION ( 'UNKNOWN', '', #7, #221 ) ;
#43 = CARTESIAN_POINT ( 'NONE',  ( 2.043586314094152378E-14, -7.167935885820818870E-16, 5.853063830984913452 ) ) ;
#44 = DATE_AND_TIME ( #69, #36 ) ;
#45 = ADVANCED_FACE ( 'NONE', ( #129, #222 ), #1, .T. ) ;
#46 =( LENGTH_UNIT ( ) NAMED_UNIT ( * ) SI_UNIT ( .MILLI., .METRE. ) );
#47 = EDGE_LOOP ( 'NONE', ( #174 ) ) ;
#48 = SECURITY_CLASSIFICATION_LEVEL ( 'unclassified' ) ;
#49 = DATE_AND_TIME ( #216, #50 ) ;
#50 = LOCAL_TIME ( 11, 17, 54.00000000000000000, #262 ) ;
#51 = APPLICATION_CONTEXT ( 'configuration controlled 3d designs of mechanical parts and assemblies' ) ;
#52 = CARTESIAN_POINT ( 'NONE',  ( 1.047444401652940007E-13, 4.499279347985507822E-33, 30.00000000000000000 ) ) ;
#53 = EDGE_LOOP ( 'NONE', ( #299 ) ) ;
#54 = ADVANCED_FACE ( 'NONE', ( #102, #15 ), #204, .T. ) ;
#55 = CIRCLE ( 'NONE', #65, 0.4579999999999999627 ) ;
#56 = DIRECTION ( 'NONE',  ( 3.491481338843133355E-15, -1.224646799147353207E-16, 1.000000000000000000 ) ) ;
#57 = ADVANCED_BREP_SHAPE_REPRESENTATION ( '970902', ( #11, #104, #141 ), #66 ) ;
#58 = FACE_OUTER_BOUND ( 'NONE', #288, .T. ) ;
#59 = DIRECTION ( 'NONE',  ( -3.491481338843133355E-15, 1.224646799147353207E-16, -1.000000000000000000 ) ) ;
#60 = DIRECTION ( 'NONE',  ( -3.491481338843133355E-15, 1.224646799147353207E-16, -1.000000000000000000 ) ) ;
#61 = CIRCLE ( 'NONE', #270, 0.5999999999999986455 ) ;
#62 = FACE_OUTER_BOUND ( 'NONE', #260, .T. ) ;
#63 = DIRECTION ( 'NONE',  ( -3.491481338843133355E-15, 1.224646799147353207E-16, -1.000000000000000000 ) ) ;
#64 = CARTESIAN_POINT ( 'NONE',  ( 1.256933281983528008E-14, -4.408728476930471151E-16, 3.600000000000000089 ) ) ;
#65 = AXIS2_PLACEMENT_3D ( 'NONE', #230, #60, #134 ) ;
#66 =( GEOMETRIC_REPRESENTATION_CONTEXT ( 3 ) GLOBAL_UNCERTAINTY_ASSIGNED_CONTEXT ( ( #296 ) ) GLOBAL_UNIT_ASSIGNED_CONTEXT ( ( #46, #285, #91 ) ) REPRESENTATION_CONTEXT ( 'NONE', 'WORKASPACE' ) );
#67 = VERTEX_POINT ( 'NONE', #237 ) ;
#68 = APPLICATION_CONTEXT ( 'configuration controlled 3d designs of mechanical parts and assemblies' ) ;
#69 = CALENDAR_DATE ( 2021, 17, 12 ) ;
#70 = APPROVAL_DATE_TIME ( #283, #200 ) ;
#71 = APPLICATION_PROTOCOL_DEFINITION ( 'international standard', 'config_control_design', 1994, #68 ) ;
#72 = EDGE_LOOP ( 'NONE', ( #217 ) ) ;
#73 = CALENDAR_DATE ( 2021, 17, 12 ) ;
#74 = EDGE_LOOP ( 'NONE', ( #25 ) ) ;
#75 = AXIS2_PLACEMENT_3D ( 'NONE', #52, #243, #30 ) ;
#76 = APPROVAL_DATE_TIME ( #290, #118 ) ;
#77 = EDGE_LOOP ( 'NONE', ( #144 ) ) ;
#78 = FACE_BOUND ( 'NONE', #47, .T. ) ;
#79 = ADVANCED_FACE ( 'NONE', ( #206, #58 ), #154, .T. ) ;
#80 = CARTESIAN_POINT ( 'NONE',  ( 0.0000000000000000000, 0.0000000000000000000, 0.0000000000000000000 ) ) ;
#81 = FACE_OUTER_BOUND ( 'NONE', #171, .T. ) ;
#82 = CARTESIAN_POINT ( 'NONE',  ( 2.043586314094152378E-14, -7.167935885820818870E-16, 5.853063830984913452 ) ) ;
#83 = DIRECTION ( 'NONE',  ( -3.491481338843133355E-15, 1.224646799147353207E-16, -1.000000000000000000 ) ) ;
#84 = CARTESIAN_POINT ( 'NONE',  ( 2.356749903719115409E-15, 0.4579999999999995186, 0.6750000000000000444 ) ) ;
#85 = DIRECTION ( 'NONE',  ( 0.0000000000000000000, 1.000000000000000000, 0.0000000000000000000 ) ) ;
#86 = CC_DESIGN_PERSON_AND_ORGANIZATION_ASSIGNMENT ( #189, #123, ( #218 ) ) ;
#87 = PLANE ( 'NONE',  #225 ) ;
#88 = APPLICATION_PROTOCOL_DEFINITION ( 'international standard', 'config_control_design', 1994, #51 ) ;
#89 = ORIENTED_EDGE ( 'NONE', *, *, #153, .F. ) ;
#90 = ORIENTED_EDGE ( 'NONE', *, *, #229, .T. ) ;
#91 =( NAMED_UNIT ( * ) SI_UNIT ( $, .STERADIAN. ) SOLID_ANGLE_UNIT ( ) );
#92 = ADVANCED_FACE ( 'NONE', ( #81 ), #179, .F. ) ;
#93 = CALENDAR_DATE ( 2021, 17, 12 ) ;
#94 = EDGE_LOOP ( 'NONE', ( #5 ) ) ;
#95 = COORDINATED_UNIVERSAL_TIME_OFFSET ( 1, 0, .AHEAD. ) ;
#96 = AXIS2_PLACEMENT_3D ( 'NONE', #266, #252, #302 ) ;
#97 = ADVANCED_FACE ( 'NONE', ( #32, #78 ), #151, .T. ) ;
#98 = FACE_OUTER_BOUND ( 'NONE', #150, .T. ) ;
#99 = DIRECTION ( 'NONE',  ( 0.0000000000000000000, 1.000000000000000000, 0.0000000000000000000 ) ) ;
#100 = CARTESIAN_POINT ( 'NONE',  ( 1.047444401652940007E-13, -3.673940397442059178E-15, 30.00000000000000000 ) ) ;
#101 = CC_DESIGN_APPROVAL ( #200, ( #7 ) ) ;
#102 = FACE_OUTER_BOUND ( 'NONE', #245, .T. ) ;
#103 = FACE_OUTER_BOUND ( 'NONE', #94, .T. ) ;
#104 = MANIFOLD_SOLID_BREP ( 'Corps-Déplacer/Copier1[2]', #268 ) ;
#105 = DIRECTION ( 'NONE',  ( 4.275831445896958607E-31, 1.000000000000000000, 1.224646799147353207E-16 ) ) ;
#106 = CC_DESIGN_SECURITY_CLASSIFICATION ( #218, ( #7 ) ) ;
#107 = DIRECTION ( 'NONE',  ( 3.491481338843133355E-15, -1.224646799147353207E-16, 1.000000000000000000 ) ) ;
#108 = AXIS2_PLACEMENT_3D ( 'NONE', #100, #9, #300 ) ;
#109 = FACE_BOUND ( 'NONE', #198, .T. ) ;
#110 = FACE_OUTER_BOUND ( 'NONE', #293, .T. ) ;
#111 = CARTESIAN_POINT ( 'NONE',  ( -3.392240181246318662E-32, 1.189837686853805240E-33, -9.715762027730907915E-18 ) ) ;
#112 = CC_DESIGN_APPROVAL ( #177, ( #42 ) ) ;
#113 = AXIS2_PLACEMENT_3D ( 'NONE', #220, #202, #297 ) ;
#114 = CARTESIAN_POINT ( 'NONE',  ( 2.043586314094152378E-14, 0.7499999999999963363, 5.853063830984913452 ) ) ;
#115 = ORIENTED_EDGE ( 'NONE', *, *, #272, .F. ) ;
#116 = EDGE_LOOP ( 'NONE', ( #286 ) ) ;
#117 = VERTEX_POINT ( 'NONE', #114 ) ;
#118 = APPROVAL ( #173, 'UNSPECIFIED' ) ;
#119 = APPROVAL_PERSON_ORGANIZATION ( #193, #200, #138 ) ;
#120 = AXIS2_PLACEMENT_3D ( 'NONE', #178, #295, #149 ) ;
#121 = DIRECTION ( 'NONE',  ( 1.000000000000000000, 0.0000000000000000000, 0.0000000000000000000 ) ) ;
#122 = EDGE_LOOP ( 'NONE', ( #115 ) ) ;
#123 = PERSON_AND_ORGANIZATION_ROLE ( 'classification_officer' ) ;
#124 = DIRECTION ( 'NONE',  ( -8.410174429638591954E-31, -1.000000000000000000, -2.367253651715077278E-16 ) ) ;
#125 = LOCAL_TIME ( 11, 17, 54.00000000000000000, #280 ) ;
#126 = AXIS2_PLACEMENT_3D ( 'NONE', #43, #107, #184 ) ;
#127 = DIRECTION ( 'NONE',  ( 4.275831445896957731E-31, 1.000000000000000000, 1.224646799147353207E-16 ) ) ;
#128 = DIRECTION ( 'NONE',  ( -4.275831445896958607E-31, -1.000000000000000000, -1.224646799147353207E-16 ) ) ;
#129 = FACE_BOUND ( 'NONE', #116, .T. ) ;
#130 = DIRECTION ( 'NONE',  ( -3.491481338843133355E-15, 1.224646799147353207E-16, -1.000000000000000000 ) ) ;
#131 = DIRECTION ( 'NONE',  ( 0.0000000000000000000, 1.000000000000000000, 0.0000000000000000000 ) ) ;
#132 = EDGE_CURVE ( 'NONE', #273, #273, #31, .T. ) ;
#133 = DIRECTION ( 'NONE',  ( -3.491481338843133355E-15, 1.224646799147353207E-16, -1.000000000000000000 ) ) ;
#134 = DIRECTION ( 'NONE',  ( 0.0000000000000000000, 1.000000000000000000, 0.0000000000000000000 ) ) ;
#135 = AXIS2_PLACEMENT_3D ( 'NONE', #267, #201, #127 ) ;
#136 = VERTEX_POINT ( 'NONE', #231 ) ;
#137 = DIRECTION ( 'NONE',  ( -3.491481338843133355E-15, 1.224646799147353207E-16, -1.000000000000000000 ) ) ;
#138 = APPROVAL_ROLE ( '' ) ;
#139 = EDGE_LOOP ( 'NONE', ( #169 ) ) ;
#140 = AXIS2_PLACEMENT_3D ( 'NONE', #34, #130, #269 ) ;
#141 = AXIS2_PLACEMENT_3D ( 'NONE', #164, #213, #121 ) ;
#142 = PERSON_AND_ORGANIZATION_ROLE ( 'creator' ) ;
#143 = CARTESIAN_POINT ( 'NONE',  ( 1.047444401652940007E-13, 0.5999999999999949818, 30.00000000000000000 ) ) ;
#144 = ORIENTED_EDGE ( 'NONE', *, *, #229, .F. ) ;
#145 = PERSON_AND_ORGANIZATION ( #168, #251 ) ;
#146 = ORIENTED_EDGE ( 'NONE', *, *, #244, .T. ) ;
#147 = PERSON_AND_ORGANIZATION_ROLE ( 'creator' ) ;
#148 = EDGE_CURVE ( 'NONE', #160, #160, #211, .T. ) ;
#149 = DIRECTION ( 'NONE',  ( -4.275831445896958607E-31, -1.000000000000000000, -1.224646799147353207E-16 ) ) ;
#150 = EDGE_LOOP ( 'NONE', ( #281 ) ) ;
#151 = CONICAL_SURFACE ( 'NONE', #108, 0.5999999999999986455, 0.7853981633974450594 ) ;
#152 = CARTESIAN_POINT ( 'NONE',  ( 2.356749903719115015E-15, -8.266365894244633101E-17, 0.6749999999999999334 ) ) ;
#153 = EDGE_CURVE ( 'NONE', #274, #274, #233, .T. ) ;
#154 = CYLINDRICAL_SURFACE ( 'NONE', #172, 0.4579999999999997962 ) ;
#155 = FACE_OUTER_BOUND ( 'NONE', #165, .T. ) ;
#156 = TOROIDAL_SURFACE ( 'NONE', #203, 2.458000000000000185, 2.000000000000000000 ) ;
#157 = DIRECTION ( 'NONE',  ( -3.491481338843133355E-15, 1.224646799147353207E-16, -1.000000000000000000 ) ) ;
#158 = ADVANCED_FACE ( 'NONE', ( #155 ), #35, .F. ) ;
#159 = DIRECTION ( 'NONE',  ( 3.491481338843133355E-15, -1.224646799147353207E-16, 1.000000000000000000 ) ) ;
#160 = VERTEX_POINT ( 'NONE', #187 ) ;
#161 = CARTESIAN_POINT ( 'NONE',  ( 1.042207179644675275E-13, 0.7499999999999947820, 29.84999999999999787 ) ) ;
#162 = SHAPE_DEFINITION_REPRESENTATION ( #19, #57 ) ;
#163 = CARTESIAN_POINT ( 'NONE',  ( 0.0000000000000000000, 0.0000000000000000000, 0.0000000000000000000 ) ) ;
#164 = CARTESIAN_POINT ( 'NONE',  ( 0.0000000000000000000, 0.0000000000000000000, 0.0000000000000000000 ) ) ;
#165 = EDGE_LOOP ( 'NONE', ( #146 ) ) ;
#166 = CC_DESIGN_PERSON_AND_ORGANIZATION_ASSIGNMENT ( #27, #6, ( #215 ) ) ;
#167 = APPROVAL_ROLE ( '' ) ;
#168 = PERSON ( 'UNSPECIFIED', 'UNSPECIFIED', 'UNSPECIFIED', ('UNSPECIFIED'), ('UNSPECIFIED'), ('UNSPECIFIED') ) ;
#169 = ORIENTED_EDGE ( 'NONE', *, *, #219, .T. ) ;
#170 = PERSON_AND_ORGANIZATION ( #168, #251 ) ;
#171 = EDGE_LOOP ( 'NONE', ( #90 ) ) ;
#172 = AXIS2_PLACEMENT_3D ( 'NONE', #80, #248, #246 ) ;
#173 = APPROVAL_STATUS ( 'not_yet_approved' ) ;
#174 = ORIENTED_EDGE ( 'NONE', *, *, #298, .T. ) ;
#175 = CARTESIAN_POINT ( 'NONE',  ( 3.106070022492212462E-16, -1.089462707033398598E-17, 0.08896138117471298623 ) ) ;
#176 = DIRECTION ( 'NONE',  ( 3.491481338843133355E-15, -1.224646799147353207E-16, 1.000000000000000000 ) ) ;
#177 = APPROVAL ( #287, 'UNSPECIFIED' ) ;
#178 = CARTESIAN_POINT ( 'NONE',  ( 1.256933281983528008E-14, 3.434449902295647244E-33, 3.600000000000000089 ) ) ;
#179 = PLANE ( 'NONE',  #37 ) ;
#180 = CC_DESIGN_DATE_AND_TIME_ASSIGNMENT ( #235, #196, ( #42 ) ) ;
#181 = PLANE ( 'NONE',  #75 ) ;
#182 = AXIS2_PLACEMENT_3D ( 'NONE', #175, #176, #13 ) ;
#183 = DIRECTION ( 'NONE',  ( 4.275831445896958607E-31, 1.000000000000000000, 1.224646799147353207E-16 ) ) ;
#184 = DIRECTION ( 'NONE',  ( 0.0000000000000000000, -1.000000000000000000, 0.0000000000000000000 ) ) ;
#185 = CARTESIAN_POINT ( 'NONE',  ( 1.571166602479410010E-14, 0.4579999999999995186, 4.500000000000000000 ) ) ;
#186 = CC_DESIGN_DATE_AND_TIME_ASSIGNMENT ( #44, #234, ( #218 ) ) ;
#187 = CARTESIAN_POINT ( 'NONE',  ( 3.106070022492213448E-16, 0.3440856321061027678, 0.08896138117471302786 ) ) ;
#188 = AXIS2_PLACEMENT_3D ( 'NONE', #82, #63, #271 ) ;
#189 = PERSON_AND_ORGANIZATION ( #168, #251 ) ;
#190 = APPROVAL_STATUS ( 'not_yet_approved' ) ;
#191 = ADVANCED_FACE ( 'NONE', ( #226, #223 ), #26, .T. ) ;
#192 = ORIENTED_EDGE ( 'NONE', *, *, #247, .T. ) ;
#193 = PERSON_AND_ORGANIZATION ( #168, #251 ) ;
#194 = EDGE_LOOP ( 'NONE', ( #236 ) ) ;
#195 = ADVANCED_FACE ( 'NONE', ( #103 ), #181, .F. ) ;
#196 = DATE_TIME_ROLE ( 'creation_date' ) ;
#197 = CALENDAR_DATE ( 2021, 17, 12 ) ;
#198 = EDGE_LOOP ( 'NONE', ( #214 ) ) ;
#199 = AXIS2_PLACEMENT_3D ( 'NONE', #38, #21, #131 ) ;
#200 = APPROVAL ( #190, 'UNSPECIFIED' ) ;
#201 = DIRECTION ( 'NONE',  ( -3.491481338843133355E-15, 1.224646799147353207E-16, -1.000000000000000000 ) ) ;
#202 = DIRECTION ( 'NONE',  ( -3.491481338843133355E-15, 1.224646799147353207E-16, -1.000000000000000000 ) ) ;
#203 = AXIS2_PLACEMENT_3D ( 'NONE', #232, #133, #207 ) ;
#204 = CYLINDRICAL_SURFACE ( 'NONE', #135, 0.4580000000000000182 ) ;
#205 = ADVANCED_FACE ( 'NONE', ( #98, #294 ), #156, .F. ) ;
#206 = FACE_OUTER_BOUND ( 'NONE', #28, .T. ) ;
#207 = DIRECTION ( 'NONE',  ( 4.394966907553574054E-31, 1.000000000000000000, 1.224646799147353207E-16 ) ) ;
#208 = CARTESIAN_POINT ( 'NONE',  ( 1.256933281983528008E-14, 3.434449902295647244E-33, 3.600000000000000089 ) ) ;
#209 = EDGE_CURVE ( 'NONE', #256, #256, #282, .T. ) ;
#210 = DIRECTION ( 'NONE',  ( -3.491481338843133355E-15, 1.224646799147353207E-16, -1.000000000000000000 ) ) ;
#211 = CIRCLE ( 'NONE', #140, 0.3440856321061027678 ) ;
#212 = APPROVAL_DATE_TIME ( #49, #177 ) ;
#213 = DIRECTION ( 'NONE',  ( 0.0000000000000000000, 0.0000000000000000000, 1.000000000000000000 ) ) ;
#214 = ORIENTED_EDGE ( 'NONE', *, *, #219, .F. ) ;
#215 = PRODUCT ( '970902', '970902', '', ( #241 ) ) ;
#216 = CALENDAR_DATE ( 2021, 17, 12 ) ;
#217 = ORIENTED_EDGE ( 'NONE', *, *, #148, .T. ) ;
#218 = SECURITY_CLASSIFICATION ( '', '', #48 ) ;
#219 = EDGE_CURVE ( 'NONE', #255, #255, #240, .T. ) ;
#220 = CARTESIAN_POINT ( 'NONE',  ( 2.356749903719115015E-15, -8.266365894244633101E-17, 0.6749999999999999334 ) ) ;
#221 = DESIGN_CONTEXT ( 'detailed design', #68, 'design' ) ;
#222 = FACE_OUTER_BOUND ( 'NONE', #194, .T. ) ;
#223 = FACE_OUTER_BOUND ( 'NONE', #72, .T. ) ;
#224 = CC_DESIGN_PERSON_AND_ORGANIZATION_ASSIGNMENT ( #29, #261, ( #7 ) ) ;
#225 = AXIS2_PLACEMENT_3D ( 'NONE', #208, #159, #18 ) ;
#226 = FACE_BOUND ( 'NONE', #77, .T. ) ;
#227 = FACE_OUTER_BOUND ( 'NONE', #122, .T. ) ;
#228 = CIRCLE ( 'NONE', #249, 0.1900000000000000022 ) ;
#229 = EDGE_CURVE ( 'NONE', #136, #136, #228, .T. ) ;
#230 = CARTESIAN_POINT ( 'NONE',  ( 1.256933281983528008E-14, -4.408728476930471151E-16, 3.600000000000000089 ) ) ;
#231 = CARTESIAN_POINT ( 'NONE',  ( 4.731839565957903391E-32, 0.1900000000000000022, 1.355252715606880543E-17 ) ) ;
#232 = CARTESIAN_POINT ( 'NONE',  ( 1.571166602479409694E-14, -4.336808689942017736E-16, 4.499999999999999112 ) ) ;
#233 = CIRCLE ( 'NONE', #250, 0.7499999999999984457 ) ;
#234 = DATE_TIME_ROLE ( 'classification_date' ) ;
#235 = DATE_AND_TIME ( #93, #276 ) ;
#236 = ORIENTED_EDGE ( 'NONE', *, *, #132, .T. ) ;
#237 = CARTESIAN_POINT ( 'NONE',  ( 1.256933281983528008E-14, 0.4579999999999995186, 3.600000000000000089 ) ) ;
#238 = ORIENTED_EDGE ( 'NONE', *, *, #132, .F. ) ;
#239 = PRODUCT_RELATED_PRODUCT_CATEGORY ( 'detail', '', ( #215 ) ) ;
#240 = CIRCLE ( 'NONE', #199, 0.5261483474218596745 ) ;
#241 = MECHANICAL_CONTEXT ( 'NONE', #51, 'mechanical' ) ;
#242 = ORIENTED_EDGE ( 'NONE', *, *, #247, .F. ) ;
#243 = DIRECTION ( 'NONE',  ( -3.491481338843133355E-15, 1.224646799147353207E-16, -1.000000000000000000 ) ) ;
#244 = EDGE_CURVE ( 'NONE', #20, #20, #55, .T. ) ;
#245 = EDGE_LOOP ( 'NONE', ( #265 ) ) ;
#246 = DIRECTION ( 'NONE',  ( 4.275831445896958607E-31, 1.000000000000000000, 1.224646799147353207E-16 ) ) ;
#247 = EDGE_CURVE ( 'NONE', #67, #67, #292, .T. ) ;
#248 = DIRECTION ( 'NONE',  ( -3.491481338843133355E-15, 1.224646799147353207E-16, -1.000000000000000000 ) ) ;
#249 = AXIS2_PLACEMENT_3D ( 'NONE', #111, #210, #183 ) ;
#250 = AXIS2_PLACEMENT_3D ( 'NONE', #10, #59, #99 ) ;
#251 = ORGANIZATION ( 'UNSPECIFIED', 'UNSPECIFIED', '' ) ;
#252 = DIRECTION ( 'NONE',  ( -3.491481338843133355E-15, 1.224646799147353207E-16, -1.000000000000000000 ) ) ;
#253 = CARTESIAN_POINT ( 'NONE',  ( 1.047444401652940007E-13, -3.673940397442059178E-15, 30.00000000000000000 ) ) ;
#254 = APPROVAL_PERSON_ORGANIZATION ( #22, #118, #263 ) ;
#255 = VERTEX_POINT ( 'NONE', #278 ) ;
#256 = VERTEX_POINT ( 'NONE', #185 ) ;
#257 = COORDINATED_UNIVERSAL_TIME_OFFSET ( 1, 0, .AHEAD. ) ;
#258 = CONICAL_SURFACE ( 'NONE', #126, 0.7499999999999971134, 0.2617993877991435236 ) ;
#259 = PERSON_AND_ORGANIZATION ( #168, #251 ) ;
#260 = EDGE_LOOP ( 'NONE', ( #242 ) ) ;
#261 = PERSON_AND_ORGANIZATION_ROLE ( 'design_supplier' ) ;
#262 = COORDINATED_UNIVERSAL_TIME_OFFSET ( 1, 0, .AHEAD. ) ;
#263 = APPROVAL_ROLE ( '' ) ;
#264 = ADVANCED_FACE ( 'NONE', ( #227, #39 ), #2, .T. ) ;
#265 = ORIENTED_EDGE ( 'NONE', *, *, #244, .F. ) ;
#266 = CARTESIAN_POINT ( 'NONE',  ( 1.571166602479410010E-14, -5.510910596163088569E-16, 4.500000000000000000 ) ) ;
#267 = CARTESIAN_POINT ( 'NONE',  ( 0.0000000000000000000, 0.0000000000000000000, 0.0000000000000000000 ) ) ;
#268 = CLOSED_SHELL ( 'NONE', ( #92, #191, #45, #79, #284 ) ) ;
#269 = DIRECTION ( 'NONE',  ( 4.197930176419034428E-31, 1.000000000000000000, 1.181612298640507749E-16 ) ) ;
#270 = AXIS2_PLACEMENT_3D ( 'NONE', #253, #83, #16 ) ;
#271 = DIRECTION ( 'NONE',  ( 0.0000000000000000000, 1.000000000000000000, 0.0000000000000000000 ) ) ;
#272 = EDGE_CURVE ( 'NONE', #117, #117, #14, .T. ) ;
#273 = VERTEX_POINT ( 'NONE', #84 ) ;
#274 = VERTEX_POINT ( 'NONE', #161 ) ;
#275 = APPROVAL_PERSON_ORGANIZATION ( #259, #177, #167 ) ;
#276 = LOCAL_TIME ( 11, 17, 54.00000000000000000, #257 ) ;
#277 = AXIS2_PLACEMENT_3D ( 'NONE', #163, #157, #105 ) ;
#278 = CARTESIAN_POINT ( 'NONE',  ( 1.751898975701935175E-14, 0.5261483474218590084, 5.017638090205028156 ) ) ;
#279 = COORDINATED_UNIVERSAL_TIME_OFFSET ( 1, 0, .AHEAD. ) ;
#280 = COORDINATED_UNIVERSAL_TIME_OFFSET ( 1, 0, .AHEAD. ) ;
#281 = ORIENTED_EDGE ( 'NONE', *, *, #209, .F. ) ;
#282 = CIRCLE ( 'NONE', #96, 0.4580000000000000737 ) ;
#283 = DATE_AND_TIME ( #73, #125 ) ;
#284 = ADVANCED_FACE ( 'NONE', ( #62 ), #87, .T. ) ;
#285 =( NAMED_UNIT ( * ) PLANE_ANGLE_UNIT ( ) SI_UNIT ( $, .RADIAN. ) );
#286 = ORIENTED_EDGE ( 'NONE', *, *, #148, .F. ) ;
#287 = APPROVAL_STATUS ( 'not_yet_approved' ) ;
#288 = EDGE_LOOP ( 'NONE', ( #192 ) ) ;
#289 = CC_DESIGN_PERSON_AND_ORGANIZATION_ASSIGNMENT ( #145, #142, ( #42 ) ) ;
#290 = DATE_AND_TIME ( #197, #40 ) ;
#291 = CC_DESIGN_APPROVAL ( #118, ( #218 ) ) ;
#292 = CIRCLE ( 'NONE', #8, 0.4579999999999999627 ) ;
#293 = EDGE_LOOP ( 'NONE', ( #23 ) ) ;
#294 = FACE_OUTER_BOUND ( 'NONE', #139, .T. ) ;
#295 = DIRECTION ( 'NONE',  ( 3.491481338843133355E-15, -1.224646799147353207E-16, 1.000000000000000000 ) ) ;
#296 = UNCERTAINTY_MEASURE_WITH_UNIT (LENGTH_MEASURE( 1.000000000000000082E-05 ), #46, 'distance_accuracy_value', 'NONE');
#297 = DIRECTION ( 'NONE',  ( 8.410174429638591954E-31, 1.000000000000000000, 2.367253651715077278E-16 ) ) ;
#298 = EDGE_CURVE ( 'NONE', #24, #24, #61, .T. ) ;
#299 = ORIENTED_EDGE ( 'NONE', *, *, #209, .T. ) ;
#300 = DIRECTION ( 'NONE',  ( 0.0000000000000000000, 1.000000000000000000, 0.0000000000000000000 ) ) ;
#301 = ADVANCED_FACE ( 'NONE', ( #109, #110 ), #258, .T. ) ;
#302 = DIRECTION ( 'NONE',  ( 0.0000000000000000000, 1.000000000000000000, 0.0000000000000000000 ) ) ;
#303 = CARTESIAN_POINT ( 'NONE',  ( 1.256933281983528008E-14, 0.4579999999999995186, 3.600000000000000089 ) ) ;
ENDSEC;
END-ISO-10303-21;
