ISO-10303-21;
HEADER;
FILE_DESCRIPTION (( 'STEP AP203' ),
    '1' );
FILE_NAME ('970901.step',
    '2021-12-17T10:17:53',
    ( '' ),
    ( '' ),
    'SwSTEP 2.0',
    'SolidWorks 2019',
    '' );
FILE_SCHEMA (( 'CONFIG_CONTROL_DESIGN' ));
ENDSEC;

DATA;
#1 = CARTESIAN_POINT ( 'NONE',  ( 0.0000000000000000000, 0.1700000000000000122, 0.0000000000000000000 ) ) ;
#2 = FACE_OUTER_BOUND ( 'NONE', #91, .T. ) ;
#3 = CALENDAR_DATE ( 2021, 17, 12 ) ;
#4 = DIRECTION ( 'NONE',  ( 0.0000000000000000000, 1.000000000000000000, 0.0000000000000000000 ) ) ;
#5 = CC_DESIGN_PERSON_AND_ORGANIZATION_ASSIGNMENT ( #148, #127, ( #47 ) ) ;
#6 = DIRECTION ( 'NONE',  ( 0.0000000000000000000, -1.000000000000000000, 0.0000000000000000000 ) ) ;
#7 = AXIS2_PLACEMENT_3D ( 'NONE', #131, #251, #44 ) ;
#8 = PRODUCT_DEFINITION_FORMATION_WITH_SPECIFIED_SOURCE ( 'ANY', '', #241, .NOT_KNOWN. ) ;
#9 = CARTESIAN_POINT ( 'NONE',  ( 1.042207179644675275E-13, -3.655570695454848748E-15, 29.84999999999999787 ) ) ;
#10 = PERSON_AND_ORGANIZATION ( #48, #275 ) ;
#11 = CARTESIAN_POINT ( 'NONE',  ( 1.117274028429802674E-14, -3.918869757271530460E-16, 3.200000000000000178 ) ) ;
#12 = EDGE_LOOP ( 'NONE', ( #270 ) ) ;
#13 = APPLICATION_CONTEXT ( 'configuration controlled 3d designs of mechanical parts and assemblies' ) ;
#14 = FACE_OUTER_BOUND ( 'NONE', #282, .T. ) ;
#15 = EDGE_LOOP ( 'NONE', ( #225 ) ) ;
#16 = CC_DESIGN_DATE_AND_TIME_ASSIGNMENT ( #231, #277, ( #223 ) ) ;
#17 = CARTESIAN_POINT ( 'NONE',  ( 2.755905285828779544E-16, 0.3067146924945224340, 0.07893226451389026566 ) ) ;
#18 = EDGE_LOOP ( 'NONE', ( #180 ) ) ;
#19 = CARTESIAN_POINT ( 'NONE',  ( 1.117274028429802674E-14, 0.4079999999999995852, 3.200000000000000178 ) ) ;
#20 = APPLICATION_PROTOCOL_DEFINITION ( 'international standard', 'config_control_design', 1994, #293 ) ;
#21 = CONICAL_SURFACE ( 'NONE', #185, 0.7499999999999970024, 0.2617993877991421359 ) ;
#22 = FACE_OUTER_BOUND ( 'NONE', #152, .T. ) ;
#23 = CONICAL_SURFACE ( 'NONE', #100, 0.3067146924945224340, 1.047197551196593190 ) ;
#24 = MANIFOLD_SOLID_BREP ( 'Corps-Déplacer/Copier1[2]', #88 ) ;
#25 = EDGE_CURVE ( 'NONE', #51, #51, #162, .T. ) ;
#26 = CARTESIAN_POINT ( 'NONE',  ( 2.094888803305879619E-15, 0.4079999999999996407, 0.5999999999999999778 ) ) ;
#27 = APPROVAL_PERSON_ORGANIZATION ( #164, #128, #256 ) ;
#28 = DIRECTION ( 'NONE',  ( -3.491481338843133355E-15, 1.224646799147353207E-16, -1.000000000000000000 ) ) ;
#29 = ADVANCED_FACE ( 'NONE', ( #291 ), #247, .F. ) ;
#30 = VERTEX_POINT ( 'NONE', #167 ) ;
#31 = DIRECTION ( 'NONE',  ( -3.491481338843133355E-15, 1.224646799147353207E-16, -1.000000000000000000 ) ) ;
#32 = PERSON_AND_ORGANIZATION_ROLE ( 'creator' ) ;
#33 = CARTESIAN_POINT ( 'NONE',  ( 0.0000000000000000000, 0.0000000000000000000, 0.0000000000000000000 ) ) ;
#34 = DATE_AND_TIME ( #190, #78 ) ;
#35 = FACE_OUTER_BOUND ( 'NONE', #224, .T. ) ;
#36 = DIRECTION ( 'NONE',  ( -4.275831445896958607E-31, -1.000000000000000000, -1.224646799147353207E-16 ) ) ;
#37 = PRODUCT_DEFINITION_SHAPE ( 'NONE', 'NONE',  #223 ) ;
#38 = ORIENTED_EDGE ( 'NONE', *, *, #67, .T. ) ;
#39 = AXIS2_PLACEMENT_3D ( 'NONE', #132, #221, #200 ) ;
#40 = AXIS2_PLACEMENT_3D ( 'NONE', #286, #123, #169 ) ;
#41 = EDGE_LOOP ( 'NONE', ( #109 ) ) ;
#42 = ORIENTED_EDGE ( 'NONE', *, *, #276, .F. ) ;
#43 = PERSON_AND_ORGANIZATION ( #48, #275 ) ;
#44 = DIRECTION ( 'NONE',  ( 4.275831445896958607E-31, 1.000000000000000000, 1.224646799147353207E-16 ) ) ;
#45 = ADVANCED_FACE ( 'NONE', ( #243 ), #160, .F. ) ;
#46 = DIRECTION ( 'NONE',  ( -3.491481338843133355E-15, 1.224646799147353207E-16, -1.000000000000000000 ) ) ;
#47 = SECURITY_CLASSIFICATION ( '', '', #124 ) ;
#48 = PERSON ( 'UNSPECIFIED', 'UNSPECIFIED', 'UNSPECIFIED', ('UNSPECIFIED'), ('UNSPECIFIED'), ('UNSPECIFIED') ) ;
#49 = EDGE_CURVE ( 'NONE', #30, #30, #198, .T. ) ;
#50 = DIRECTION ( 'NONE',  ( 3.491481338843133355E-15, -1.224646799147353207E-16, 1.000000000000000000 ) ) ;
#51 = VERTEX_POINT ( 'NONE', #207 ) ;
#52 = DIRECTION ( 'NONE',  ( -3.491481338843133355E-15, 1.224646799147353207E-16, -1.000000000000000000 ) ) ;
#53 = FACE_OUTER_BOUND ( 'NONE', #244, .T. ) ;
#54 = APPROVAL_DATE_TIME ( #212, #56 ) ;
#55 = DATE_AND_TIME ( #3, #63 ) ;
#56 = APPROVAL ( #258, 'UNSPECIFIED' ) ;
#57 = DIRECTION ( 'NONE',  ( 0.0000000000000000000, 1.000000000000000000, 0.0000000000000000000 ) ) ;
#58 = AXIS2_PLACEMENT_3D ( 'NONE', #288, #101, #175 ) ;
#59 = EDGE_LOOP ( 'NONE', ( #179 ) ) ;
#60 = DIRECTION ( 'NONE',  ( -3.491481338843133355E-15, 1.224646799147353207E-16, -1.000000000000000000 ) ) ;
#61 = ORIENTED_EDGE ( 'NONE', *, *, #106, .T. ) ;
#62 = ADVANCED_FACE ( 'NONE', ( #266, #178 ), #274, .T. ) ;
#63 = LOCAL_TIME ( 11, 17, 53.00000000000000000, #121 ) ;
#64 = EDGE_LOOP ( 'NONE', ( #42 ) ) ;
#65 = DIRECTION ( 'NONE',  ( 3.491481338843133355E-15, -1.224646799147353207E-16, 1.000000000000000000 ) ) ;
#66 = VERTEX_POINT ( 'NONE', #26 ) ;
#67 = EDGE_CURVE ( 'NONE', #82, #82, #297, .T. ) ;
#68 = FACE_OUTER_BOUND ( 'NONE', #87, .T. ) ;
#69 = ADVANCED_FACE ( 'NONE', ( #14 ), #111, .F. ) ;
#70 = CIRCLE ( 'NONE', #116, 0.4079999999999999183 ) ;
#71 = APPROVAL_ROLE ( '' ) ;
#72 = ORIENTED_EDGE ( 'NONE', *, *, #49, .T. ) ;
#73 = APPROVAL_DATE_TIME ( #188, #128 ) ;
#74 = APPROVAL ( #97, 'UNSPECIFIED' ) ;
#75 = CYLINDRICAL_SURFACE ( 'NONE', #58, 0.4079999999999999738 ) ;
#76 = CARTESIAN_POINT ( 'NONE',  ( 1.934164175903203980E-14, 0.7499999999999963363, 5.539666371363364483 ) ) ;
#77 = EDGE_LOOP ( 'NONE', ( #249 ) ) ;
#78 = LOCAL_TIME ( 11, 17, 53.00000000000000000, #240 ) ;
#79 = DIRECTION ( 'NONE',  ( 0.0000000000000000000, 1.000000000000000000, 0.0000000000000000000 ) ) ;
#80 = COORDINATED_UNIVERSAL_TIME_OFFSET ( 1, 0, .AHEAD. ) ;
#81 = ADVANCED_BREP_SHAPE_REPRESENTATION ( '970901', ( #230, #24, #95 ), #89 ) ;
#82 = VERTEX_POINT ( 'NONE', #1 ) ;
#83 = PERSON_AND_ORGANIZATION_ROLE ( 'design_supplier' ) ;
#84 = ADVANCED_FACE ( 'NONE', ( #68, #203 ), #170, .F. ) ;
#85 = DIRECTION ( 'NONE',  ( 0.0000000000000000000, 1.000000000000000000, 0.0000000000000000000 ) ) ;
#86 = DESIGN_CONTEXT ( 'detailed design', #293, 'design' ) ;
#87 = EDGE_LOOP ( 'NONE', ( #112 ) ) ;
#88 = CLOSED_SHELL ( 'NONE', ( #29, #267, #98, #184, #301 ) ) ;
#89 =( GEOMETRIC_REPRESENTATION_CONTEXT ( 3 ) GLOBAL_UNCERTAINTY_ASSIGNED_CONTEXT ( ( #196 ) ) GLOBAL_UNIT_ASSIGNED_CONTEXT ( ( #130, #299, #119 ) ) REPRESENTATION_CONTEXT ( 'NONE', 'WORKASPACE' ) );
#90 = CIRCLE ( 'NONE', #186, 0.7499999999999984457 ) ;
#91 = EDGE_LOOP ( 'NONE', ( #155 ) ) ;
#92 = PERSON_AND_ORGANIZATION_ROLE ( 'design_owner' ) ;
#93 = EDGE_LOOP ( 'NONE', ( #134 ) ) ;
#94 = ORIENTED_EDGE ( 'NONE', *, *, #140, .F. ) ;
#95 = AXIS2_PLACEMENT_3D ( 'NONE', #264, #159, #113 ) ;
#96 = CARTESIAN_POINT ( 'NONE',  ( 1.577324908759778822E-14, -5.532511026875750163E-16, 4.517638090205028156 ) ) ;
#97 = APPROVAL_STATUS ( 'not_yet_approved' ) ;
#98 = ADVANCED_FACE ( 'NONE', ( #273, #22 ), #137, .T. ) ;
#99 = CLOSED_SHELL ( 'NONE', ( #69, #290, #84, #120, #250, #62, #45 ) ) ;
#100 = AXIS2_PLACEMENT_3D ( 'NONE', #105, #50, #217 ) ;
#101 = DIRECTION ( 'NONE',  ( -3.491481338843133355E-15, 1.224646799147353207E-16, -1.000000000000000000 ) ) ;
#102 = FACE_OUTER_BOUND ( 'NONE', #18, .T. ) ;
#103 = SHAPE_DEFINITION_REPRESENTATION ( #37, #81 ) ;
#104 = CARTESIAN_POINT ( 'NONE',  ( 2.094888803305879619E-15, -7.347880794884117764E-17, 0.5999999999999999778 ) ) ;
#105 = CARTESIAN_POINT ( 'NONE',  ( 2.755905285828778065E-16, -9.666414508638787550E-18, 0.07893226451389022402 ) ) ;
#106 = EDGE_CURVE ( 'NONE', #187, #187, #246, .T. ) ;
#107 = DIRECTION ( 'NONE',  ( -3.491481338843133355E-15, 1.224646799147353207E-16, -1.000000000000000000 ) ) ;
#108 = EDGE_LOOP ( 'NONE', ( #199 ) ) ;
#109 = ORIENTED_EDGE ( 'NONE', *, *, #114, .F. ) ;
#110 = AXIS2_PLACEMENT_3D ( 'NONE', #96, #182, #289 ) ;
#111 = PLANE ( 'NONE',  #143 ) ;
#112 = ORIENTED_EDGE ( 'NONE', *, *, #106, .F. ) ;
#113 = DIRECTION ( 'NONE',  ( 1.000000000000000000, 0.0000000000000000000, 0.0000000000000000000 ) ) ;
#114 = EDGE_CURVE ( 'NONE', #157, #157, #70, .T. ) ;
#115 = EDGE_LOOP ( 'NONE', ( #166 ) ) ;
#116 = AXIS2_PLACEMENT_3D ( 'NONE', #262, #214, #4 ) ;
#117 = DIRECTION ( 'NONE',  ( 3.491481338843133355E-15, -1.224646799147353207E-16, 1.000000000000000000 ) ) ;
#118 = AXIS2_PLACEMENT_3D ( 'NONE', #272, #65, #36 ) ;
#119 =( NAMED_UNIT ( * ) SI_UNIT ( $, .STERADIAN. ) SOLID_ANGLE_UNIT ( ) );
#120 = ADVANCED_FACE ( 'NONE', ( #283, #102 ), #21, .T. ) ;
#121 = COORDINATED_UNIVERSAL_TIME_OFFSET ( 1, 0, .AHEAD. ) ;
#122 = DIRECTION ( 'NONE',  ( -3.491481338843133355E-15, 1.224646799147353207E-16, -1.000000000000000000 ) ) ;
#123 = DIRECTION ( 'NONE',  ( 3.491481338843133355E-15, -1.224646799147353207E-16, 1.000000000000000000 ) ) ;
#124 = SECURITY_CLASSIFICATION_LEVEL ( 'unclassified' ) ;
#125 = APPROVAL_DATE_TIME ( #55, #74 ) ;
#126 = CYLINDRICAL_SURFACE ( 'NONE', #209, 0.7499999999999977796 ) ;
#127 = PERSON_AND_ORGANIZATION_ROLE ( 'classification_officer' ) ;
#128 = APPROVAL ( #279, 'UNSPECIFIED' ) ;
#129 = DIRECTION ( 'NONE',  ( -3.491481338843133355E-15, 1.224646799147353207E-16, -1.000000000000000000 ) ) ;
#130 =( LENGTH_UNIT ( ) NAMED_UNIT ( * ) SI_UNIT ( .MILLI., .METRE. ) );
#131 = CARTESIAN_POINT ( 'NONE',  ( 1.047444401652940007E-13, 4.499279347985507822E-33, 30.00000000000000000 ) ) ;
#132 = CARTESIAN_POINT ( 'NONE',  ( -7.268913458024830200E-32, 2.549591630525158412E-33, -2.081899558550500773E-17 ) ) ;
#133 = AXIS2_PLACEMENT_3D ( 'NONE', #300, #117, #174 ) ;
#134 = ORIENTED_EDGE ( 'NONE', *, *, #210, .F. ) ;
#135 = EDGE_LOOP ( 'NONE', ( #269 ) ) ;
#136 = EDGE_LOOP ( 'NONE', ( #202 ) ) ;
#137 = CONICAL_SURFACE ( 'NONE', #133, 0.4079999999999996962, 0.1919862177193694674 ) ;
#138 = CIRCLE ( 'NONE', #171, 0.3067146924945224340 ) ;
#139 = CC_DESIGN_APPROVAL ( #56, ( #8 ) ) ;
#140 = EDGE_CURVE ( 'NONE', #66, #66, #303, .T. ) ;
#141 = APPROVAL_ROLE ( '' ) ;
#142 = PLANE ( 'NONE',  #40 ) ;
#143 = AXIS2_PLACEMENT_3D ( 'NONE', #292, #183, #252 ) ;
#144 = CC_DESIGN_SECURITY_CLASSIFICATION ( #47, ( #8 ) ) ;
#145 = DIRECTION ( 'NONE',  ( 0.0000000000000000000, 1.000000000000000000, 0.0000000000000000000 ) ) ;
#146 = CYLINDRICAL_SURFACE ( 'NONE', #265, 0.4079999999999998073 ) ;
#147 = PERSON_AND_ORGANIZATION ( #48, #275 ) ;
#148 = PERSON_AND_ORGANIZATION ( #48, #275 ) ;
#149 = AXIS2_PLACEMENT_3D ( 'NONE', #104, #122, #211 ) ;
#150 = AXIS2_PLACEMENT_3D ( 'NONE', #257, #52, #79 ) ;
#151 = FACE_OUTER_BOUND ( 'NONE', #41, .T. ) ;
#152 = EDGE_LOOP ( 'NONE', ( #201 ) ) ;
#153 = CARTESIAN_POINT ( 'NONE',  ( 1.042207179644675275E-13, 0.7499999999999947820, 29.84999999999999787 ) ) ;
#154 = DIRECTION ( 'NONE',  ( 0.0000000000000000000, 1.000000000000000000, 0.0000000000000000000 ) ) ;
#155 = ORIENTED_EDGE ( 'NONE', *, *, #276, .T. ) ;
#156 = EDGE_LOOP ( 'NONE', ( #94 ) ) ;
#157 = VERTEX_POINT ( 'NONE', #19 ) ;
#158 = EDGE_CURVE ( 'NONE', #165, #165, #228, .T. ) ;
#159 = DIRECTION ( 'NONE',  ( 0.0000000000000000000, 0.0000000000000000000, 1.000000000000000000 ) ) ;
#160 = PLANE ( 'NONE',  #7 ) ;
#161 = CARTESIAN_POINT ( 'NONE',  ( 1.396592535537253342E-14, -4.336808689942017736E-16, 4.000000000000000000 ) ) ;
#162 = CIRCLE ( 'NONE', #110, 0.4761483474218604073 ) ;
#163 = AXIS2_PLACEMENT_3D ( 'NONE', #263, #28, #57 ) ;
#164 = PERSON_AND_ORGANIZATION ( #48, #275 ) ;
#165 = VERTEX_POINT ( 'NONE', #76 ) ;
#166 = ORIENTED_EDGE ( 'NONE', *, *, #25, .F. ) ;
#167 = CARTESIAN_POINT ( 'NONE',  ( 1.117274028429802674E-14, 0.4079999999999995852, 3.200000000000000178 ) ) ;
#168 = CARTESIAN_POINT ( 'NONE',  ( 1.047444401652940007E-13, 0.5999999999999949818, 30.00000000000000000 ) ) ;
#169 = DIRECTION ( 'NONE',  ( -4.275831445896958607E-31, -1.000000000000000000, -1.224646799147353207E-16 ) ) ;
#170 = TOROIDAL_SURFACE ( 'NONE', #284, 2.407999999999999918, 2.000000000000000000 ) ;
#171 = AXIS2_PLACEMENT_3D ( 'NONE', #189, #192, #235 ) ;
#172 = VERTEX_POINT ( 'NONE', #17 ) ;
#173 = CARTESIAN_POINT ( 'NONE',  ( 1.047444401652940007E-13, -3.673940397442059178E-15, 30.00000000000000000 ) ) ;
#174 = DIRECTION ( 'NONE',  ( 0.0000000000000000000, -1.000000000000000000, 0.0000000000000000000 ) ) ;
#175 = DIRECTION ( 'NONE',  ( 4.275831445896958607E-31, 1.000000000000000000, 1.224646799147353207E-16 ) ) ;
#176 = DIRECTION ( 'NONE',  ( -3.491481338843133355E-15, 1.224646799147353207E-16, -1.000000000000000000 ) ) ;
#177 = CC_DESIGN_APPROVAL ( #74, ( #223 ) ) ;
#178 = FACE_BOUND ( 'NONE', #136, .T. ) ;
#179 = ORIENTED_EDGE ( 'NONE', *, *, #285, .F. ) ;
#180 = ORIENTED_EDGE ( 'NONE', *, *, #158, .T. ) ;
#181 = CC_DESIGN_DATE_AND_TIME_ASSIGNMENT ( #34, #208, ( #47 ) ) ;
#182 = DIRECTION ( 'NONE',  ( -3.491481338843133355E-15, 1.224646799147353207E-16, -1.000000000000000000 ) ) ;
#183 = DIRECTION ( 'NONE',  ( 3.491481338843133355E-15, -1.224646799147353207E-16, 1.000000000000000000 ) ) ;
#184 = ADVANCED_FACE ( 'NONE', ( #191, #239 ), #146, .T. ) ;
#185 = AXIS2_PLACEMENT_3D ( 'NONE', #242, #237, #6 ) ;
#186 = AXIS2_PLACEMENT_3D ( 'NONE', #9, #107, #85 ) ;
#187 = VERTEX_POINT ( 'NONE', #295 ) ;
#188 = DATE_AND_TIME ( #261, #253 ) ;
#189 = CARTESIAN_POINT ( 'NONE',  ( 2.755905285828778065E-16, -9.666414508638787550E-18, 0.07893226451389022402 ) ) ;
#190 = CALENDAR_DATE ( 2021, 17, 12 ) ;
#191 = FACE_OUTER_BOUND ( 'NONE', #156, .T. ) ;
#192 = DIRECTION ( 'NONE',  ( -3.491481338843133355E-15, 1.224646799147353207E-16, -1.000000000000000000 ) ) ;
#193 = CALENDAR_DATE ( 2021, 17, 12 ) ;
#194 = FACE_OUTER_BOUND ( 'NONE', #77, .T. ) ;
#195 = PERSON_AND_ORGANIZATION_ROLE ( 'creator' ) ;
#196 = UNCERTAINTY_MEASURE_WITH_UNIT (LENGTH_MEASURE( 1.000000000000000082E-05 ), #130, 'distance_accuracy_value', 'NONE');
#197 = ORIENTED_EDGE ( 'NONE', *, *, #158, .F. ) ;
#198 = CIRCLE ( 'NONE', #234, 0.4079999999999999183 ) ;
#199 = ORIENTED_EDGE ( 'NONE', *, *, #25, .T. ) ;
#200 = DIRECTION ( 'NONE',  ( 4.275831445896958607E-31, 1.000000000000000000, 1.224646799147353207E-16 ) ) ;
#201 = ORIENTED_EDGE ( 'NONE', *, *, #140, .T. ) ;
#202 = ORIENTED_EDGE ( 'NONE', *, *, #210, .T. ) ;
#203 = FACE_OUTER_BOUND ( 'NONE', #108, .T. ) ;
#204 = APPLICATION_PROTOCOL_DEFINITION ( 'international standard', 'config_control_design', 1994, #13 ) ;
#205 = AXIS2_PLACEMENT_3D ( 'NONE', #173, #31, #145 ) ;
#206 = CC_DESIGN_PERSON_AND_ORGANIZATION_ASSIGNMENT ( #10, #195, ( #223 ) ) ;
#207 = CARTESIAN_POINT ( 'NONE',  ( 1.577324908759778822E-14, 0.4761483474218598522, 4.517638090205028156 ) ) ;
#208 = DATE_TIME_ROLE ( 'classification_date' ) ;
#209 = AXIS2_PLACEMENT_3D ( 'NONE', #260, #129, #259 ) ;
#210 = EDGE_CURVE ( 'NONE', #280, #280, #302, .T. ) ;
#211 = DIRECTION ( 'NONE',  ( 0.0000000000000000000, 1.000000000000000000, 0.0000000000000000000 ) ) ;
#212 = DATE_AND_TIME ( #193, #255 ) ;
#213 = DIRECTION ( 'NONE',  ( -3.491481338843133355E-15, 1.224646799147353207E-16, -1.000000000000000000 ) ) ;
#214 = DIRECTION ( 'NONE',  ( -3.491481338843133355E-15, 1.224646799147353207E-16, -1.000000000000000000 ) ) ;
#215 = AXIS2_PLACEMENT_3D ( 'NONE', #268, #60, #154 ) ;
#216 = APPROVAL_PERSON_ORGANIZATION ( #147, #56, #71 ) ;
#217 = DIRECTION ( 'NONE',  ( -4.709417232486256226E-31, -1.000000000000000000, -1.325583105834831004E-16 ) ) ;
#218 = DIRECTION ( 'NONE',  ( 0.0000000000000000000, 1.000000000000000000, 0.0000000000000000000 ) ) ;
#219 = CALENDAR_DATE ( 2021, 17, 12 ) ;
#220 = VERTEX_POINT ( 'NONE', #153 ) ;
#221 = DIRECTION ( 'NONE',  ( -3.491481338843133355E-15, 1.224646799147353207E-16, -1.000000000000000000 ) ) ;
#222 = APPROVAL_PERSON_ORGANIZATION ( #298, #74, #141 ) ;
#223 = PRODUCT_DEFINITION ( 'UNKNOWN', '', #8, #86 ) ;
#224 = EDGE_LOOP ( 'NONE', ( #61 ) ) ;
#225 = ORIENTED_EDGE ( 'NONE', *, *, #67, .F. ) ;
#226 = CC_DESIGN_PERSON_AND_ORGANIZATION_ASSIGNMENT ( #43, #92, ( #241 ) ) ;
#227 = DIRECTION ( 'NONE',  ( 4.396318262608663187E-31, 1.000000000000000000, 1.224646799147353207E-16 ) ) ;
#228 = CIRCLE ( 'NONE', #150, 0.7499999999999970024 ) ;
#229 = COORDINATED_UNIVERSAL_TIME_OFFSET ( 1, 0, .AHEAD. ) ;
#230 = MANIFOLD_SOLID_BREP ( 'Corps-Déplacer/Copier1[1]', #99 ) ;
#231 = DATE_AND_TIME ( #219, #271 ) ;
#232 = CC_DESIGN_PERSON_AND_ORGANIZATION_ASSIGNMENT ( #287, #32, ( #8 ) ) ;
#233 = DIRECTION ( 'NONE',  ( 4.275831445896958607E-31, 1.000000000000000000, 1.224646799147353454E-16 ) ) ;
#234 = AXIS2_PLACEMENT_3D ( 'NONE', #11, #176, #218 ) ;
#235 = DIRECTION ( 'NONE',  ( 4.709417232486256226E-31, 1.000000000000000000, 1.325583105834831004E-16 ) ) ;
#236 = COORDINATED_UNIVERSAL_TIME_OFFSET ( 1, 0, .AHEAD. ) ;
#237 = DIRECTION ( 'NONE',  ( 3.491481338843133355E-15, -1.224646799147353207E-16, 1.000000000000000000 ) ) ;
#238 = PERSON_AND_ORGANIZATION ( #48, #275 ) ;
#239 = FACE_OUTER_BOUND ( 'NONE', #12, .T. ) ;
#240 = COORDINATED_UNIVERSAL_TIME_OFFSET ( 1, 0, .AHEAD. ) ;
#241 = PRODUCT ( '970901', '970901', '', ( #296 ) ) ;
#242 = CARTESIAN_POINT ( 'NONE',  ( 1.934164175903203980E-14, -6.784134690034376192E-16, 5.539666371363364483 ) ) ;
#243 = FACE_OUTER_BOUND ( 'NONE', #93, .T. ) ;
#244 = EDGE_LOOP ( 'NONE', ( #197 ) ) ;
#245 = CC_DESIGN_PERSON_AND_ORGANIZATION_ASSIGNMENT ( #238, #83, ( #8 ) ) ;
#246 = CIRCLE ( 'NONE', #163, 0.4080000000000000293 ) ;
#247 = PLANE ( 'NONE',  #118 ) ;
#248 = CC_DESIGN_APPROVAL ( #128, ( #47 ) ) ;
#249 = ORIENTED_EDGE ( 'NONE', *, *, #49, .F. ) ;
#250 = ADVANCED_FACE ( 'NONE', ( #53, #278 ), #126, .T. ) ;
#251 = DIRECTION ( 'NONE',  ( -3.491481338843133355E-15, 1.224646799147353207E-16, -1.000000000000000000 ) ) ;
#252 = DIRECTION ( 'NONE',  ( -4.275831445896958607E-31, -1.000000000000000000, -1.224646799147353207E-16 ) ) ;
#253 = LOCAL_TIME ( 11, 17, 53.00000000000000000, #80 ) ;
#254 = PRODUCT_RELATED_PRODUCT_CATEGORY ( 'detail', '', ( #241 ) ) ;
#255 = LOCAL_TIME ( 11, 17, 53.00000000000000000, #236 ) ;
#256 = APPROVAL_ROLE ( '' ) ;
#257 = CARTESIAN_POINT ( 'NONE',  ( 1.934164175903203980E-14, -6.784134690034376192E-16, 5.539666371363364483 ) ) ;
#258 = APPROVAL_STATUS ( 'not_yet_approved' ) ;
#259 = DIRECTION ( 'NONE',  ( 4.275831445896958607E-31, 1.000000000000000000, 1.224646799147353207E-16 ) ) ;
#260 = CARTESIAN_POINT ( 'NONE',  ( 0.0000000000000000000, 0.0000000000000000000, 0.0000000000000000000 ) ) ;
#261 = CALENDAR_DATE ( 2021, 17, 12 ) ;
#262 = CARTESIAN_POINT ( 'NONE',  ( 1.117274028429802674E-14, -3.918869757271530460E-16, 3.200000000000000178 ) ) ;
#263 = CARTESIAN_POINT ( 'NONE',  ( 1.396592535537253342E-14, -4.898587196589412829E-16, 4.000000000000000000 ) ) ;
#264 = CARTESIAN_POINT ( 'NONE',  ( 0.0000000000000000000, 0.0000000000000000000, 0.0000000000000000000 ) ) ;
#265 = AXIS2_PLACEMENT_3D ( 'NONE', #33, #213, #233 ) ;
#266 = FACE_OUTER_BOUND ( 'NONE', #59, .T. ) ;
#267 = ADVANCED_FACE ( 'NONE', ( #281, #2 ), #23, .T. ) ;
#268 = CARTESIAN_POINT ( 'NONE',  ( 1.047444401652940007E-13, -3.673940397442059178E-15, 30.00000000000000000 ) ) ;
#269 = ORIENTED_EDGE ( 'NONE', *, *, #285, .T. ) ;
#270 = ORIENTED_EDGE ( 'NONE', *, *, #114, .T. ) ;
#271 = LOCAL_TIME ( 11, 17, 53.00000000000000000, #229 ) ;
#272 = CARTESIAN_POINT ( 'NONE',  ( -3.634456729012415100E-32, 1.274795815262579206E-33, -1.040949779275250386E-17 ) ) ;
#273 = FACE_BOUND ( 'NONE', #64, .T. ) ;
#274 = CONICAL_SURFACE ( 'NONE', #215, 0.5999999999999986455, 0.7853981633974450594 ) ;
#275 = ORGANIZATION ( 'UNSPECIFIED', 'UNSPECIFIED', '' ) ;
#276 = EDGE_CURVE ( 'NONE', #172, #172, #138, .T. ) ;
#277 = DATE_TIME_ROLE ( 'creation_date' ) ;
#278 = FACE_OUTER_BOUND ( 'NONE', #135, .T. ) ;
#279 = APPROVAL_STATUS ( 'not_yet_approved' ) ;
#280 = VERTEX_POINT ( 'NONE', #168 ) ;
#281 = FACE_BOUND ( 'NONE', #15, .T. ) ;
#282 = EDGE_LOOP ( 'NONE', ( #72 ) ) ;
#283 = FACE_BOUND ( 'NONE', #115, .T. ) ;
#284 = AXIS2_PLACEMENT_3D ( 'NONE', #161, #46, #227 ) ;
#285 = EDGE_CURVE ( 'NONE', #220, #220, #90, .T. ) ;
#286 = CARTESIAN_POINT ( 'NONE',  ( 1.117274028429802674E-14, 3.059509956630183526E-33, 3.200000000000000178 ) ) ;
#287 = PERSON_AND_ORGANIZATION ( #48, #275 ) ;
#288 = CARTESIAN_POINT ( 'NONE',  ( 0.0000000000000000000, 0.0000000000000000000, 0.0000000000000000000 ) ) ;
#289 = DIRECTION ( 'NONE',  ( 0.0000000000000000000, 1.000000000000000000, 0.0000000000000000000 ) ) ;
#290 = ADVANCED_FACE ( 'NONE', ( #194, #35 ), #75, .T. ) ;
#291 = FACE_OUTER_BOUND ( 'NONE', #294, .T. ) ;
#292 = CARTESIAN_POINT ( 'NONE',  ( 1.117274028429802674E-14, 3.059509956630183526E-33, 3.200000000000000178 ) ) ;
#293 = APPLICATION_CONTEXT ( 'configuration controlled 3d designs of mechanical parts and assemblies' ) ;
#294 = EDGE_LOOP ( 'NONE', ( #38 ) ) ;
#295 = CARTESIAN_POINT ( 'NONE',  ( 1.396592535537253342E-14, 0.4079999999999995852, 4.000000000000000000 ) ) ;
#296 = MECHANICAL_CONTEXT ( 'NONE', #13, 'mechanical' ) ;
#297 = CIRCLE ( 'NONE', #39, 0.1700000000000000122 ) ;
#298 = PERSON_AND_ORGANIZATION ( #48, #275 ) ;
#299 =( NAMED_UNIT ( * ) PLANE_ANGLE_UNIT ( ) SI_UNIT ( $, .RADIAN. ) );
#300 = CARTESIAN_POINT ( 'NONE',  ( 2.094888803305879619E-15, -7.347880794884117764E-17, 0.5999999999999999778 ) ) ;
#301 = ADVANCED_FACE ( 'NONE', ( #151 ), #142, .T. ) ;
#302 = CIRCLE ( 'NONE', #205, 0.5999999999999986455 ) ;
#303 = CIRCLE ( 'NONE', #149, 0.4079999999999996962 ) ;
ENDSEC;
END-ISO-10303-21;
